Oops, an error
Loading. Please wait.

Todo Negro Tab

version 2
version 2

Whole song

by M-Clan
23 views 1 this week
no commentswrite comment
1 2 3 4 5
3 more votes to show rating
add to favorites
launch autoscroll
font size
0
reset
how to read this tab
guitar tuner
Autoscroll
slow
fast
+/-
esc
set tempo
stop
E-----------------------------------------------------------------
B------4-5x 10-4----------4-5-7-8-5-7-4-5-4-5x 10--
G-4-5----------------5-4-4-5-----------------------------------
D-----------------------------------------------------------------
A-----------------------------------------------------------------
E-----------------------------------------------------------------

E-----------------------------------------------------------------
B--4-------------------------------------------------------------
G----5-4-(x 10)-5-4----------------0--------------------------
D----------------------7(x 6)-5-5-5---5------------------------
A-----------------------------------------------------------------
E-----------------------------------------------------------------
                                       Em
E-------------------------------------------------0--------------
B-------------------------------------------------0--------------
G-------------------------------------------------0--------------
D-4-4-4-5-4---------4----------4------------------2--------------
A--------------7-7-7---7-6-6-6---6----------------2--------------
E-------------------------------------------------0--------------

Em      B7      

Em      B7      Em      B7
Woooooooo    Woooooooo

Em                    B7                                                 
No se que pasa que lo veo todo negro            

D-----1--------
A--3---3-2----
E---------------

Em                        B7
Porque cualquier color se me convierte en negro
Em         D            G   D       Em
Las chicas van vestidas con dibujos op-art            
                                                            
G--------2----------------
D-2-4-5---5-4-5-2------
A--------------------------
E--------------------------

Em     D         G        D             A               B7
La mitad es blanco mas lo tengo que imaginar
Em                  B7                  Em
Veo los coches aparcados todos negros 
Em                        B7
las flores y mi amor también los veo negros. 
Em  D          G      D    Em
La gente mira y la vista han de apartar             
                  
G------0--2-0---0---------
D-2-4---------4---2-------
A---------------------------
E---------------------------


Em      D      G      D              A                  B7
yo no sé que cosa extraña encuentran en mi mirar. 
Em            B7         Em            B7
Woooooooooooooooo  Woooooooooooooo

Em                  B7
También mi corazón parece todo negro 

D-----1--------
A--3---3-2----
E---------------

Em                  B7                  
el mundo entero para mí se ha vuelto negro 
Em      D      G      D    Em
se que pronto con la realidad me habré de enfrentar 

G--------2----------------
D-2-4-5---5-4-5-2------
A--------------------------      
E--------------------------

Em      D      G      D      A            B7
y estoy negro cuando pienso que podré fracasar. 

      BAJO                              BAJO
Em  A-2--2-----   repetir estas dos       B7   A-2--2------  repetir estas dos 
    E---0---0---  notas varias veces           E---3---3---  notas varias veces
Ya nunca más tendrá                   color azul el cielo       
                        
      BAJO                              BAJO
Em  A-2--2-----   repetir estas dos       B7   A-2--2------  repetir estas dos 
    E---0---0---  notas varias veces           E---3---3---  notas varias veces

el sol y el mar no brillan, 
             B7
todo queda en negro.
Em      D   G          D       Em
Y un gato negro mi camino quiere cruzar 

G--------2----------------
D-2-4-5---5-4-5-2------
A--------------------------
E--------------------------

Em D        G      D      A                 B7
yo no le temo por lo negro de mi mirar.
Em            B7         Em            B7
Woooooooooooooooo  Woooooooooooooo
Em            B7         Em            B7
Woooooooooooooooo  Woooooooooooooo
B7
Woooooouuouwoo

                                    GUITARRA
E-----------------------------------------------------------------
B-5x 5-4-5x 6-4-5x 6-7-8-8-7-5--------------------
G---------------------------------------------4------------------

E-7-7-7-7-7---------7---------7---------------------5-7~ ~---
B--------------8-5------8-5------8-5----5-4-5-7-8------------
G------------------8--------8---------8-------------------------


Em            B7         Em            B7
Woooooooooooooooo  Woooooooooooooo      

E-------------------------------------------------
B-------4-5-5-5-5-4----------------------------
G--4-5---------------5-4---5-4-----------------
D----------------------------------7-5-4---4----
A-----------------------------------------7---7--
E--------------------------------------------------

Em            B7         Em            B7
Woooooooooooooooo  Woooooooooooooo             
E---------------------------------------
B-5-5-5-5-4--------------------------
G-------------5-4-4-5-5-7-5-4------
D---------------------------------7----


Pulsando y soltando el segundo traste sin tocar la cuerda
D--2-0-2-0-2-0-2---- tocar varias veces                        
A-----------------------
E-----------------------

Em

Los Rolling Stones! 
En homenaje a los salvajes.
Suggest correction
Give kudos to tab author, rate the tab!
1 2 3 4 5
comments
print report bad tab
guest
You may want to rate the tab now too:
select rating
Wanna post a correction for this tab? Suggest correction