Oops, an error
Loading. Please wait.

Go chords

version 1
version 1

Whole song

by M83
1,663 views 15 this week
6 commentsread comments
1 2 3 4 5
x 5
add to favorites
×
Save as Personal and add changes to this tab that will be seen only by you. Learn more ›
×
You can save this tab as Personal to edit and correct it or add notes. All changes will be seen only by you. Learn more »
launch autoscroll
font size
0
reset
transpose
0
reset
display chords
guitar tuner
edit
Autoscroll
slow
fast
+/-
esc
set tempo
stop
Strumming
There is no strumming pattern for this song yet. and get +5 IQ
A good rating helps

[Verse/Chorus]

e|---------------------------------------------------------------------------|
B|---------------------------------------------------------------------------|
G|-------------------------------------------------10-10-10-10-12-12-12-12---|
D|----------------12-12-12-10-12-10------------------------------------------|
A|-13-13-13-13-13-------------------13-13-13-13-13---------------------------|
E|---------------------------------------------------------------------------|
Or
e|------------------------------------------3-3-3-3-------------------------------|
B|-----------3-3-3---3--------------4-4-4-4---------------------------------------|
G|-3-3-3-3-3-------5---5--3-3-3-3-3-----------------------------------------------|
D|--------------------------------------------------------------------------------|
A|--------------------------------------------------------------------------------|
E|--------------------------------------------------------------------------------|


[Solo]
Light bends are optional on where it sounds good.

e|-------------------------------------------------------------------------------|
B|-6/8-8---8----8-8-8b-8----11/13-11/13-10b-8--8----8----8\6---------------------|
G|-----------10----------10----------------------10---10------7----7-------------|
D|--------------------------------------------------------------10---10/12-12-12-|
A|-------------------------------------------------------------------------------|
E|-------------------------------------------------------------------------------|

e|-------------------------------------------------------------------------------|
B|----------------------------------------------------------------------------8--|
G|------------------------5/7-7-------------------------------------------10b----|
D|-12-12-12-12-12-12-12\3-------10-8-10--5/7-7-8-7-------------------------------|
A|-------------------------------------------------10-10-10-10-10-10-8-10--------|
E|-------------------------------------------------------------------------------|

e|-------------------|
B|-----------8\3-11b-|
G|-10-7--------------|
D|------8/12---------|
A|-------------------|
E|-------------------|

[Outro]

e|---------------------------------------------------------------------------|
B|-3-3---------3---3-3-------3-6-3-------------------------------------------|
G|-----5---5-5---------5-5-5-------5-3---------------------------------------|
D|-------3-------3-----------------------------------------------------------|
A|---------------------------------------------------------------------------|
E|---------------------------------------------------------------------------|
Suggest correction
Creating personal tab
Creating personal tab
You can edit any tab online and save it as your Personal.

You can edit, replace or remove any tab part or add personal notes – all changes will be seen only by you.

Personal tabs can be accessed anytime from any device, even offline.
Learn more »
comments
print report bad tab
6 comments total. Showing first comments.
0 reply
zeid.haron 53 Feb 28, 2017 12:39 PM

It said "solo" but this is certainly not it

0 reply
scott.kennedy2004 10 3 days ago

Yes

guest
You may want to rate the tab now too:
select rating
Wanna post a correction for this tab? Suggest correction