Oops, an error
Loading. Please wait.

Midnight City Chords

version 1
version 1

Whole song

Interactive

by M83
101,617 views 165 this week
8 commentsread comments
1 2 3 4 5
excellent!
x 33
add to favorites
launch autoscroll
font size
0
reset
transpose
0
reset
display chords
guitar tuner
Autoscroll
slow
fast
+/-
esc
set tempo
stop
Help us to improve Ultimate-Guitar.com Take our survey!
×
Contributor
[Intro chords]

G - Bm - A - Em - (F#m)

e|-14---------14--| 
B|----15-12-------|
G|----------------|
D|----------------|
A|----------------|
E|----------------|

G           Bm
waiting in a car

A              Em
waiting for a ride in the dark

G              Bm
midnight city crawls

A              Em
you can see a ? in ?

G - Bm - A - Em - (F#m)

e|-14---------14--| 
B|----15-12-------|
G|----------------|
D|----------------|
A|----------------|
E|----------------|

It repeats over again. 
comments
print report bad tab
8 comments total. Showing first comments.
+1 reply
brian13481 131 wrote on February 26 2012, 11:36 am

i like playing it this way

----14-------14--
----15-15-12-15--
-------16-14-----
-----------------
-----------------
-----------------

but either way sounds fine

+3 reply
kayko 67 wrote on March 2 2012, 04:32 pm

the hi part is
e|--14-------14--|--14-------14--|--14-------14--|--14-------14141414--|
B|-----15-12-----|-----15-12-----|-----15-12-----|-----15-12-----------|
G|---------------|---------------|---------------|---------------------|
D|---------------|---------------|---------------|---------------------|
A|---------------|---------------|---------------|---------------------|
E|---------------|---------------|---------------|---------------------|
and it's played throught whole song but in some parts really silent.
Chords are good. I prefer to play them Palm Muted and Staccato.

+1 reply
Thiren111 59 wrote on May 20 2012, 07:15 am

look and see her eyes they glow.

and there is an other verse as well.

I want to post or [tab]
guest
You may want to rate the tab now too:
select rating
Please do not post tabs as comments. Select "correction" instead!