Oops, an error
Loading. Please wait.

Skin Of The Night Tab

by M83
3,251 views 6 this week
2 commentsread comments
1 2 3 4 5
1 last vote to show rating
add to favorites
launch autoscroll
font size
0
reset
how to read this tab
guitar tuner
Autoscroll
slow
fast
+/-
esc
set tempo
stop
Help us to improve Ultimate-Guitar.com Take our survey!
×
Author
Difficulty
I've tabbed this to include bass for single guitar. Constructive crit. only please. The 
notes represent double reverb.

Song: Skin of the Night
Artist: M83
tabbed by: IbanezBassman

Intro:

E||--2----------------|--L-------2-------2-------2--|--L------0--------L--|
B||-------------------|-----------------------------|---------------------|
G||-------------------|-----------------------------|---------------------|
D||-------------------|-------------(4)-----(4)-----|---------------------|
A||-------------------|-----------------------------|---------------------|
E||--2----------------|--L--2-----------------------|---------0--------L--|


  E  Q    E   E   E  E  E     Q.     H        E
--L-------0-------L-----0--|--L------------------|
---------------------------|---------4--------L--|
---------------------------|---------------------|
-------------(2)-----L-----|---------------------|
---------------------------|--6------------------|
--L--0---------------------|---------------------|


  E  E  E  E   E   E   E   E     Q    H        Q       Q    Q    H
------------------------------|---------------------|---------------------|
-----------2-------2-------2--|--L----L--------L----|--L----0----L--------|
------------------------------|---------------------|---------------------|
------------------------------|---------------------|---------------------|
-----4--L-----(4)-----(4)-----|---------------------|-------2----L--------|
------------------------------|---------------------|---------------------|

Duration Legend
---------------
W - whole
H - half
Q - quarter
E - 8th
S - 16th
T - 32nd
X - 64th
. - note dotted
|-n-|  - n-tuplets


Tablature Legend
----------------
L - tied note
x - dead note
g - grace note
(n) - ghost note
> - accentuded note
NH - natural harmonic
AH - artificial harmonic
TH - tapped harmonic
SH - semi harmonic
PH - pitch harmonic
h - hammer on
p - pull off
b - bend
br - bendRelease
pb - preBend
pbr - preBendRelease
brb - bendReleaseBend
\n/ - tremolo bar dip
\n - tremolo bar dive
-/n - tremolo bar Release up
/n\ - tremolo bar inverted dip
/n - tremolo bar return
-\n - tremolo bar Release down
S - shift slide
s - legato slide
/ -  slide into from below or out of upwards
\ -  slide into from above or out of downwards
~ - vibrato
W - wide vibrato
tr - trill
TP - tremolo picking
T - tapping
S - slap
P - pop
< - fade in
^ - brush up
v - brush down
Suggest correction
Give kudos to tab author, rate the tab!
1 2 3 4 5
comments
print report bad tab
2 comments total.
+1 reply
punxnotdead77 10 Feb 12, 2010 03:10 AM

Pefect, would like the rest of the song though.

0 reply
IbanezBassman 140 Jul 11, 2010 06:59 AM

punxnotdead77, wish I could tab the rest. But as you know it's quite hard to hear the guitar so I ain't that capable.
That's the general gist of the bit after I tabbed:

B|--7-7-|--5-5-|
G|-4-4--|-2-2--|

Otherwise good luck, and if you find another tab of it. Let me know as well!

guest
You may want to rate the tab now too:
select rating
Wanna post a correction for this tab? Suggest correction