Oops, an error
Loading. Please wait.

Malo Alan Chords

55 views 1 this week
no commentswrite comment
1 2 3 4 5
3 more votes to show rating
add to favorites
launch autoscroll
font size
0
reset
transpose
0
reset
simplify chords
display chords
guitar tuner
Autoscroll
slow
fast
+/-
esc
set tempo
stop
Help us to improve Ultimate-Guitar.com Take our survey!
×
Intro
e ------------------------------------------------------
B ------------------------------------------------------
G -5-5-5-7--9-9-7-5----12-10-9 ----7-7-7-9-9--9-7-5-7-5-
D -7-7-7-7--9-9-7-5----12-10-10----9-9-9-9-9--9-7-5-7-5-
A ------------------------------------------------------
E ------------------------------------------------------

e  -------------- -------------
B  -------------- -------------
G  -------------- -------------
D  -7-6-5-------- -------5-----
A  0------7-6-5-- -5-6-7---7-5
E  ------------5- -------------5
               x3

Am
Maldecido por su madre
G             Am
que lo vio nacer
Dm          C
Malo alan es su nombre
E7         Am
y empezó a crecer

Pasaron solo tres mese
y empezó a gatear
no lo para ni su abuela
quien lo va a parar

Y a la hora de la siesta
se iba a descansar
con alguna de sus primas
que felicidad

Dm
Malo alan malo alan
C
cuando vas a escarmentar
Dm
pasaran mas de mil años
E7           Am
muchos muchos mas..

intro

y al cumplir los 17
se empezó a marear
con las cosas que tomaba
allá en la ciudad

y la historia no termina
sigue hasta el final
no lo paran ni que vengan
de la federal..

Malo alan malo alan
cuando vas a escarmentar
pasaran mas de mil años
muchos muchos mas..


Pd:
Escuchen bien el tema para poder ver los tiempos

Esperos les guste es mi primera transcripcion,
asi que disculpen los errores..saludos
Mmendo_ing@
Suggest correction
Give kudos to tab author, rate the tab!
1 2 3 4 5
comments
print report bad tab
guest
You may want to rate the tab now too:
select rating
Wanna post a correction for this tab? Suggest correction