Oops, an error
Loading. Please wait.

Downtown Swinga 96 Bass Tab

28 views 1 this week
no commentswrite comment
1 2 3 4 5
3 more votes to show rating
add to favorites
launch autoscroll
font size
0
reset
guitar tuner
Autoscroll
slow
fast
+/-
esc
set tempo
stop
Help us to improve Ultimate-Guitar.com Take our survey!
×
Author
[Repeats throughout the song]

G|---------------------------------|
D|----3-5-3------------------------|
A|-5~-------5--3--5~------3----3---|
E|-------------------5-5----5------|

G|---------------------------------|
D|----3-5-3------------------------|
A|-5~-------5--3--5~------3----3---|
E|-------------------5-5----5------|



************************************

| ~   Vibrato

************************************
Suggest correction
Give kudos to tab author, rate the tab!
1 2 3 4 5
comments
print report bad tab
guest
You may want to rate the tab now too:
select rating
Wanna post a correction for this tab? Suggest correction