Oops, an error
Loading. Please wait.

Chinese Translation Tab

version 2
version 2

Whole song

14,979 views 60 this week
2 commentsread comments
1 2 3 4 5
x 13
add to favorites
launch autoscroll
font size
0
reset
how to read this tab
guitar tuner
Autoscroll
slow
fast
+/-
esc
set tempo
stop
Help us to improve Ultimate-Guitar.com Take our survey!
×
Tuning
D A D F# A D
D |---------0------------------------0-------------------------|
A |---------0------------------------0-------------------------|
F#|---------0------------------------1-------------------------|
D |---------4------------------------2-------------------------|
A |---------5------------------------2-------------------------|
D |---------0------------------------2-------------------------|
I sailed a wild, wild sea      climbed up a tall, tall mountain

D |-------0-----------------------0-------------------------------|
A |-------0-----------------------2-------------------------------|
F#|-------0-----------------------3-------------------------------|
D |-------4-----------------------2-------------------------------|
A |-------5-----------------------0-------------------------------|
D |-------0-----------------------0-------------------------------|
I met a old, old man          beneath a weeping willow tree

D |-----------0-------------------------------0-------------------------|
A |-----------0-------------------------------0-------------------------|
F#|-----------0-------------------------------1-------------------------|
D |-----------4-------------------------------2-------------------------|
A |-----------5-------------------------------2-------------------------|
D |-----------0-------------------------------2-------------------------|
He said now if you got some questions       go and lay them at my feet

D |------0--------------------------0-------------------------------|
A |------0--------------------------2-------------------------------|
F#|------0--------------------------3-------------------------------|
D |------4--------------------------2-------------------------------|
A |------5--------------------------0-------------------------------|
D |------0--------------------------0-------------------------------|
but my time here is brief         so you'll have to pick just three

...And I said…

D |-0-----------------------------------5------------------|
A |-0-----------------------------------5------------------|
F#|-0-----------------------------------5------------------|
D |-4-----------------------------------5------------------|
A |-5-----------------------------------5------------------|
D |-0-----------------------------------5------------------|
What do you do with the pieces of a broken heart

D |----5-------------------------------0------------------|
A |----5-------------------------------0------------------|
F#|----5-------------------------------0------------------|
D |----5-------------------------------4------------------|
A |----5-------------------------------5------------------|
D |----5-------------------------------0------------------|
and how can a man like me remain in the light

D |------2-----------2----------------------------------------------------|
A |------3-----------1----------------------------------------------------|
F#|------3-----------3----------------------------------------------------|
D |------0-----------2----------------------------------------------------|
A |------x-----------0----------------------------------------------------|
D |------x-----------x----------------------------------------------------|
and if life is really as short as they say

D |-----5---------------0-----------------------------------------------|
A |-----5---------------3-----------------------------------------------|
F#|-----5---------------4-----------------------------------------------|
D |-----5---------------5-----------------------------------------------|
A |-----5---------------5-----------------------------------------------|
D |-----5---------------x-or 0------------------------------------------|
then why is the night so long

D |------------7----------------------------------x---------|
A |------------7----------------------------------x---------|
F#|------------7----------------------------------x---------|
D |------------7----------------------------------4---------|
A |------------7----------------------------------5---------|
D |------------7----------------------------------0---------|
and then the sun went down and he sang for me this song

D |-----0----------------------0-------------------------|
A |-----0----------------------0-------------------------|
F#|-----0----------------------1-------------------------|
D |-----4----------------------2-------------------------|
A |-----5----------------------2-------------------------|
D |-----0----------------------2-------------------------|
See I once was a young fool like you

D |--0------------------------5-----------------------------------|
A |--0------------------------5-----------------------------------|
F#|--3------------------------5-----------------------------------|
D |--4------------------------5-----------------------------------|
A |--4------------------------5-----------------------------------|
D |--4------------------------5-----------------------------------|
afraid to do the things     that I knew I had to do

D |-----0-----------------------------0----------------------0----|
A |-----2-----------------------------0----------------------2----|
F#|-----3-----------------------------1----------------------3----|
D |-----2-----------------------------2----------------------2----|
A |-----0-----------------------------2----------------------0----|
D |-----0-----------------------------2----------------------0----|
So I played an escapade just like you    I played an escapade just like you

D |--------0--------------------------0-------------------------|
A |--------0--------------------------0-------------------------|
F#|--------0--------------------------1-------------------------|
D |--------4--------------------------2-------------------------|
A |--------5--------------------------2-------------------------|
D |--------0--------------------------2-------------------------|
I sailed a wild, wild sea         climbed up a tall, tall mountain

D |--------0---------------------0-------------------------------|
A |--------0---------------------2-------------------------------|
F#|--------0---------------------3-------------------------------|
D |--------4---------------------2-------------------------------|
A |--------5---------------------0-------------------------------|
D |--------0---------------------0-------------------------------|
I met an old, old man            he sat beneath a sapling tree

D |-----------0-------------------------------0-------------------------|
A |-----------0-------------------------------0-------------------------|
F#|-----------0-------------------------------1-------------------------|
D |-----------4-------------------------------2-------------------------|
A |-----------5-------------------------------2-------------------------|
D |-----------0-------------------------------2-------------------------|
He said now if you got some questions       go and lay them at my feet

D |-------0--------------------------0-------------------------------|
A |-------0--------------------------2-------------------------------|
F#|-------0--------------------------3-------------------------------|
D |-------4--------------------------2-------------------------------|
A |-------5--------------------------0-------------------------------|
D |-------0--------------------------0-------------------------------|
but my time here is brief          so you'll have to pick just three
…And I said…

D |-0-----------------------------------5------------------|
A |-0-----------------------------------5------------------|
F#|-0-----------------------------------5------------------|
D |-4-----------------------------------5------------------|
A |-5-----------------------------------5------------------|
D |-0-----------------------------------5------------------|
What do you do with the pieces of a broken heart

D |----5------------------------------0------------------|
A |----5------------------------------0------------------|
F#|----5------------------------------0------------------|
D |----5------------------------------4------------------|
A |----5------------------------------5------------------|
D |----5------------------------------0------------------|
and how can a man like me remain in the light

D |------2-----------2--------------------------------|
A |------3-----------1--------------------------------|
F#|------3-----------3--------------------------------|
D |------0-----------2--------------------------------|
A |------x-----------0--------------------------------|
D |------x-----------x--------------------------------|
and if life is really as short as they say

D |-----5----------------0----------------------------------------------|
A |-----5---------------3-----------------------------------------------|
F#|-----5---------------4-----------------------------------------------|
D |-----5---------------5-----------------------------------------------|
A |-----5---------------5-----------------------------------------------|
D |-----5---------------x-or 0------------------------------------------|
then why is the night so long

D |-----------7----------------------------------------x---------|
A |-----------7----------------------------------------x---------|
F#|-----------7----------------------------------------x---------|
D |-----------7----------------------------------------4---------|
A |-----------7----------------------------------------5---------|
D |-----------7----------------------------------------0---------|
and then the sun went down       and he played for me this song


************************************

| x  Dead note

************************************
Suggest correction
comments
print report bad tab
2 comments total.
0 reply
Akaforty 10 Feb 06, 2012 06:23 AM

Brilliant tab, love the tune!

0 reply
goblue564 10 Jul 03, 2012 01:10 PM

good to play along with, love the tuning!

guest
You may want to rate the tab now too:
select rating
Wanna post a correction for this tab? Suggest correction