Oops, an error
Loading. Please wait.

Transfiguration 1 Tab

4,599 views 6 this week
1 commentread comment
1 2 3 4 5
excellent!
x 4
add to favorites
launch autoscroll
font size
0
reset
how to read this tab
guitar tuner
Autoscroll
slow
fast
+/-
esc
set tempo
stop
Help us to improve Ultimate-Guitar.com Take our survey!
×
Contributor
DonTago 5,258
Artist: M. Ward
Song: Transfiguration #1
Album: A Broken Down Melody
Tabbed by: Don Tago
Email: recebedou@yahoo.com


Note: this song is played on multiple guitars, so this is my best attempt to 
merge all parts into a melody that can be played on one guitar!


Standard Tuning



e|---------2-2---2-2-----------2-2---2-2---2-2---2-2-------------------|
B|---------3-----3-------------3-----3-----3-----3-----0h3-------------|
G|---------2-----2-----2-4-6---2-----2-----2-----2-----------4---0-----|
D|-4-5-6-0-----0-----0-4-5-7-0-----0-----0-----0---------------------0-|
A|-5-7-8---------------------------------------------------------------|
E|---------------------------------------------------------------------|


e|----------2-2---2-2-----------2-2---2-2------------0------2---2-0---2-2-0---2-|
B|----------3-----3-------------3-----3-------------------------------3-----0-3-|
G|------2---2-----2-------------2-----2------------2---4--4---4-------2-------2-|
D|--2/4---0-----0-----0-4-5-6-0-----0-----4-5-6--2------------------0---------0-|
A|----------------------5-7-8-------------5-7-8---------------------------------|
E|------------------------------------------------------------------------------|


e|-2-3-4---2-2---2-2---5-6-9----2-2---2-2---2-2---2-2---7/10---7-----------|
B|-3-5-6---3-----3-----7-8-10---3-----3-----3-----3----------------8-------|
G|---------2-----2--------------2-----2-----2-----2--------------------7---|
D|-------0-----0-----0--------0-----0-----0-----0--------------------------|
A|-------------------------------------------------------------------------|
E|-------------------------------------------------------------------------|



e|-----5----2-2---2-2---2-3-4---2-2---2-2-2-3-4-3----0-----2---2-0---2-2-0---2-|
B|-5/7------3-----3-----3-5-6---3-----3---3-5-6-5--------------------3-----0-3-|
G|----------2-----2-------------2-----2------------2---4-4---4-------2-------2-|
D|--------0-----0-----0-------0-----0------------------------------0---------0-|
A|-----------------------------------------------------------------------------|
E|-----------------------------------------------------------------------------|


e|-------0-----0-2---2-5-5-5---10--7-5--2-0-----|
B|-----2-----2-----2-----------10--7-5--3-0-----|
G|---2-----2------------------------------------|
D|-4--------------------------------------------|
A|----------------------------------------------|
E|----------------------------------------------|


e|-------0-----0-2---2-5---2-5--10--7/10-10-----|
B|-----2-----2-----2-----2------10--7/10-10-----|
G|---2-----2------------------------------------|
D|-4--------------------------------------------|
A|----------------------------------------------|
E|----------------------------------------------|

e|------------------------------------------------|
B|-----------------------------------5---7-5-5/7--|
G|--------------------------7----4/7--------------|
D|-4-5-6-7----7-9--11-7---------------------------|
A|-5-7-8-9----9-10-12-9---------------------------|
E|------------------------------------------------|


e|----------2-2---2-2-----------2-2---2-2---------7------------------|
B|----------3-----3-------------3-----3--------------8-7-5-5---7-3-3-|
G|------2---2-----2-------------2-----2--------------9-7-4-4---7-2-2-|
D|--2/4---0-----0-----0-4-5-6-0-----0-----4-5-6-5--------------------|
A|----------------------5-7-8-------------5-7-8-7--------------------|
E|-------------------------------------------------------------------|


[piano interlude]
e|---------2-2---2-2-------------2-2---2-2---2-2---2-2-------------0h2-2-2-5--|
B|---------3-----3---------------3-----3-----3-----3-----0h3---0-3-------3-3--|
G|---------2-----2-----2-4-2-0---2-----2-----2-----2--------------------------|
D|-4-5-6-0-----0-----0-4-5-4-0-0-----0-----0-----0----------------------------|
A|-5-7-8----------------------------------------------------------------------|
E|----------------------------------------------------------------------------|


[fade out during this last line]
e|----------2-2---2-2-----------2-2---2-2------------0-----2---2-0---2-2-0---2-|
B|----------3-----3-------------3-----3------------------------------3-----0-3-|
G|------2---2-----2-------------2-----2------------2---4-4---4-------2-------2-|
D|--2/4---0-----0-----0-4-5-6-0-----0-----4-5-6--2-----------------0---------0-|
A|----------------------5-7-8-------------5-7-8--------------------------------|
E|-----------------------------------------------------------------------------|
Suggest correction What's this?
You can suggest a correction to this tab. Community and Mods will review your correction and vote to approve or reject it.
comments
print report bad tab
1 comment total.
0 reply
2folkie 11 wrote on June 14 2010, 08:13 pm

man this sounds great!
thanks for posting this up

I want to post or [tab]
guest
You may want to rate the tab now too:
select rating
Please do not post tabs as comments. Select "correction" instead!