Oops, an error
Loading. Please wait.

Dat Ik Je Mis tab

version 1
version 1

Whole song

64,179 views 123 this week
5 commentsread comments
1 2 3 4 5
x 61
add to favorites
×
Save as Personal and add changes to this tab that will be seen only by you. Learn more ›
×
You can save this tab as Personal to edit and correct it or add notes. All changes will be seen only by you. Learn more »
launch autoscroll
font size
0
reset
how to read this tab
guitar tuner
edit
Autoscroll
slow
fast
+/-
esc
set tempo
stop
Hi there,

I tried to make this tab as good as possible for me
it may be that there are flaws in it because this is my first tab,
but it sounds at least good if I say so myself :)

Maaike Ouboter - That I Miss You
By: The Best Singer-Songwriter van Nederland (tv-program) @ BNN / VARA

Watch the video here if you want to know the pace;
http://www.youtube.com/watch?v=ObGlgJPCZj4

Capo 2 (But you can also just put it higher or lower.)

Good Luck!
________________________________________________________________________


[INTRO]

     Em       G/F#      G
E|--------------------------------------------------|
B|------------------------------------0-------------|
G|-----0----0----0----0------0----0---0-------------|
D|---2----2----0----0------0----0-------------------|
A|--------------------------------------------------|
E|-0----0----2----2------3----3---------------------|

________________________________________________________________________


[COUPLET 1]

     Em       G/F#      G
E|---------------------------------------------|
B|---------------------------------------------|
G|-----0----0----0----0------0----0----0----0--|
D|---2----2----0----0------0----0----0----0----|     2x
A|---------------------------------------------|
E|-0----0----2----2------3----3----3----3------|

Je kust me, Je sust me, Omhelst me, gerust me
Je vangt me,verlangt me, oneindig ontbangt me

Je roept me, je hoort me, je redt en verstoort me
Gelooft me, berooft me, verstikt en verdooft me

   Am        G          C
E|---------------------------------------------|
B|---------------------------------------------|
G|-----2----2----0----0----0----0----0----0----|
D|---2----2----0----0----2----2----2----2------|
A|-0----0----2----2----3----3----3----3--------|
E|---------------------------------------------|

Je ademt en leeft me, siddert en beeft me
Vertrouwt me, beschouwt me als mens en weerhoudt me

   Em        G/F#      G
E|---------------------------------------------|
B|---------------------------------------------|
G|-----0----0----0----0----0----0----0----0----|
D|---2----2----0----0----0----0----0----0------|
A|---------------------------------------------|
E|-0----0----2----2----3----3----3----3--------|

Van bozige dromen, die op komen dagen
De eenzame vragen van eindig geluk

   Em        G/F#      G
E|---------------------------------------------|
B|---------------------------------------------|
G|-----0----0----0----0----0----0----0----0----|
D|---2----2----0----0----0----0----0----0------|
A|---------------------------------------------|
E|-0----0----2----2----3----3----3----3--------|

________________________________________________________________________


[COUPLET 2]

   Em        G/F#      G
E|---------------------------------------------|
B|---------------------------------------------|
G|-----0----0----0----0----0----0----0----0----|
D|---2----2----0----0----0----0----0----0------|    2x
A|---------------------------------------------|
E|-0----0----2----2----3----3----3----3--------|

Met je krullen als nacht, hoe je praat, hoe je lacht
Hoe je stem zo dichtbij als een engel verzacht

In mijn dromen doorstromen, oneindige leegtes
Je remt me, je temt me, je roert en beweegt me

   Am        G         C
E|---------------------------------------------|
B|---------------------------------------------|
G|-----2----2----0----0----0----0----0----0----|
D|---2----2----0----0----2----2----2----2------|
A|-0----0----2----2----3----3----3----3--------|
E|---------------------------------------------|

Ik mis je, ik mis je, ik grijp je, ik gris je
Ik wil je, bespeel je, ik roer en beveel je

   Em        G/F#      G
E|---------------------------------------------|
B|---------------------------------------------|
G|-----0----0----0----0----0----0----0----0----|
D|---2----2----0----0----0----0----0----0------|
A|---------------------------------------------|
E|-0----0----2----2----3----3----3----3--------|

om bij me te blijven, in donkere nachten
Om niet meer te smachten naar jouuhouuu

   Em        G/F#      G
E|---------------------------------------------|
B|---------------------------------------------|
G|-----0----0----0----0----0----0----0----0----|
D|---2----2----0----0----0----0----0----0------|
A|---------------------------------------------|
E|-0----0----2----2----3----3----3----3--------|

________________________________________________________________________

[REFREIN]

   Am                                C
E|---------------------------------|---------------------------|
B|--------1-------0/1-------1------|-------1------------1------|
G|-----2--2----2--2------2--2---2--|-----0-0- --0-----0-0---0--|
D|---2-------2---------2------2----|---2------2-----2-----2----|
A|-0-------------------------------|-3------------3------------|
E|---------------------------------|---------------------------|

Laat me los

  Em                                G
E|--------------------------------|----------------------------|
B|--------0----------------0------|-------0------0------0------|
G|-----0--0------0------0--0---0--|-----0-0----0-0----0-0---0--|
D|---2---------2------2------2----|---0------0------0-----0----|
A|-2----------------2-------------|-2--------------------------|
E|--------------------------------|----------------------------|

Ik moet nu alleen

  Am                              C
E|------------------------------|---------------------------|
B|--------1--------------1------|-------1------------1------|
G|-----2--2----2------2--2---2--|-----0-0- --0-----0-0---0--|
D|---2-------2------2------2----|---2------2-----2-----2----|
A|-0--------------0-------------|-3------------3------------|
E|------------------------------|---------------------------|

Maar houd me vast als het nodig is, in gedachten

  Em                                G
E|--------------------------------|----------------------------|
B|--------0----------------0------|-------0------0------0------|
G|-----0--0------0------0--0---0--|-----0-0----0-0----0-0---0--|
D|---2---------2------2------2----|---0------0------0-----0----|
A|-2----------------2-------------|-2--------------------------|
E|--------------------------------|----------------------------|

en ik zoek je in alles om me heen

  Am7        G         C
E|-------------------------------------------|
B|-------------------------------------------|
G|-----0----0----0----0----0----0----0----0--|    2x
D|---2----2----0----0----2----2----2----2----|
A|-0----0----2----2----3----3----3----3------|
E|-------------------------------------------|

Maar al denk ik soms dat het zo beter is,
kan ik het niet helpen dat ik je soms mis, Ooooo ik..

________________________________________________________________________

[COUPLET 3]

   Em        G/F#      G
E|---------------------------------------------|
B|---------------------------------------------|
G|-----0----0----0----0----0----0----0----0----|
D|---2----2----0----0----0----0----0----0------|    2x
A|---------------------------------------------|
E|-0----0----2----2----3----3----3----3--------|

Smoor je, bevroor je, verlos en verloor je
Weg naar een andere plek maar ik hoor je

Omarm je, verwarm je, ik zie je en voel je
Ik aai je, ik streel je, ik knuffel en kroel je

   Am        G          C
E|---------------------------------------------|
B|---------------------------------------------|
G|-----2----2----0----0----0----0----0----0----|
D|---2----2----0----0----2----2----2----2------|
A|-0----0----2----2----3----3----3----3--------|
E|---------------------------------------------|

Je rijpt me, begrijpt me, verward en misleidt me
Het schrikt me soms af hoeveel ik op je lijk nu

   Em        G/F#      G
E|---------------------------------------------|
B|---------------------------------------------|
G|-----0----0----0----0----0----0----0----0----|
D|---2----2----0----0----0----0----0----0------|
A|---------------------------------------------|
E|-0----0----2----2----3----3----3----3--------|

Mijn glimlach, mijn tranen, mijn liefde, me beleven
Het spijt me van alles, kom help en bevrijdt me

   Em        G/F#      G
E|---------------------------------------------|
B|---------------------------------------------|
G|-----0----0----0----0----0----0----0----0----|
D|---2----2----0----0----0----0----0----0------|
A|---------------------------------------------|
E|-0----0----2----2----3----3----3----3--------|

________________________________________________________________________

[REFREIN]

   Am                                C
E|---------------------------------|---------------------------|
B|--------1-------0/1-------1------|-------1------------1------|
G|-----2--2----2--2------2--2---2--|-----0-0- --0-----0-0---0--|
D|---2-------2---------2------2----|---2------2-----2-----2----|
A|-0-------------------------------|-3------------3------------|
E|---------------------------------|---------------------------|

En laat me los

  Em                                G
E|--------------------------------|----------------------------|
B|--------0----------------0------|-------0------0------0------|
G|-----0--0------0------0--0---0--|-----0-0----0-0----0-0---0--|
D|---2---------2------2------2----|---0------0------0-----0----|
A|-2----------------2-------------|-2--------------------------|
E|--------------------------------|----------------------------|

Ik kan het alleen

  Am                              C
E|------------------------------|---------------------------|
B|--------1--------------1------|-------1------------1------|
G|-----2--2----2------2--2---2--|-----0-0- --0-----0-0---0--|
D|---2-------2------2------2----|---2------2-----2-----2----|
A|-0--------------0-------------|-3------------3------------|
E|------------------------------|---------------------------|

Maar houd me vast als het nodig is, in gedachten

  Em                                G
E|--------------------------------|----------------------------|
B|--------0----------------0------|-------0------0------0------|
G|-----0--0------0------0--0---0--|-----0-0----0-0----0-0---0--|
D|---2---------2------2------2----|---0------0------0-----0----|
A|-2----------------2-------------|-2--------------------------|
E|--------------------------------|----------------------------|

en ik vind je in alles om me heen

  Am7        G         C
E|-------------------------------------------|
B|-------------------------------------------|
G|-----0----0----0----0----0----0----0----0--|    2x
D|---2----2----0----0----2----2----2----2----|
A|-0----0----2----2----3----3----3----3------|
E|-------------------------------------------|

Maar al denk ik soms dat het zo beter is,
kan ik het niet helpen dat ik je mis..

________________________________________________________________________


Laatste stukje couplet;

   Em        G/F#      G
E|---------------------------------------------|
B|---------------------------------------------|
G|-----0----0----0----0----0----0----0----0----|
D|---2----2----0----0----0----0----0----0------|
A|---------------------------------------------|
E|-0----0----2----2----3----3----3----3--------|

Ik kus je, ik sus je, ik doof en ik blus je
Je blijft heel dichtbij me en in mijn hoofd rust je..

   Em        G/F#      G
E|-----------------------------------------3---|
B|-----------------------------------------0---|
G|-----0----0----0----0----0----0----0-----0---|
D|---2----2----0----0----0----0----0-----------|
A|---------------------------------------------|
E|-0----0----2----2----3----3----3-------------|

            
            
Suggest correction
Creating personal tab
Creating personal tab
You can edit any tab online and save it as your Personal.

You can edit, replace or remove any tab part or add personal notes – all changes will be seen only by you.

Personal tabs can be accessed anytime from any device, even offline.
Learn more »
comments
print report bad tab
5 comments total. Showing first comments.
0 reply
AnonMusician101 10 Jul 04, 2013 12:46 PM

prachtig lied! bedankt voor de goede tab :)

0 reply
bertwijts 10 Jul 15, 2013 11:25 AM

Oh ja, en de laatste AM7 bij "Maar al denk ik dat...." is gewoon een AM.

0 reply
stolkie 10 Aug 14, 2013 08:48 AM

Zeer indrukwekkende song, ik ben echt geraakt... Anyways bedankt voor deze super-tab! :D

guest
You may want to rate the tab now too:
select rating
Wanna post a correction for this tab? Suggest correction