Oops, an error
Loading. Please wait.

Baby Dont Get Hooked On Me Bass Tab

4 views 1 this week
no commentswrite comment
1 2 3 4 5
3 more votes to show rating
add to favorites
launch autoscroll
font size
0
reset
guitar tuner
Autoscroll
slow
fast
+/-
esc
set tempo
stop
Help us to improve Ultimate-Guitar.com Take our survey!
×
Author
Difficulty
novice
About this tab version
This song reached number one on both the Billboard Hot 100 and Easy Listening charts in 1972. Was this info helpful? Yes No
  Intro
G|----------------|----------------|----------------|----------------|
D|----------------|----------------|----------------|----------------|
A|0-----0-0-------|0-----0-0-------|0-----0-0-------|0-----0-0-------|
E|----------------|--------------0-|----------------|--------------0-|

  Verse
      Girl      that   your               and   to           me
G|----------------|----------------|----------------|----------------|
D|----------------|----------------|----------------|----------------|
A|0-----0-0-------|0-----0-0-------|0-----0-0-------|0-----0-0-------|
E|--------------0-|--------------0-|--------------0-|--------------0-|

G|----------------|----------------|----------------|----------------|
D|----------------|----------------|----------------|----------------|
A|0-----0-0-------|0-----0-0-------|0-----0-0-------|0-----0-0-------|
E|----------------|--------------0-|--------------0-|--------------0-|

G|----------------|----------------|
D|----------------|----------------|
A|0-----0-0-------|0-----0-0-------|
E|--------------0-|----------------|

  Chorus
G|----------------|----------------|----------------|----------------|
D|----------------|----------------|----------------|2---2-----------|
A|4-------4-------|----4-------4---|2-------2-------|----------------|
E|----4-------4---|2-------2-------|----2-------2---|--------0-0-2-4-|

G|----------------|----------------|----------------|----------------|
D|----------------|----------------|2---2-----------|----------------|
A|0-------0-------|2-------2-------|----------------|0-------0-------|
E|----0-------0---|----2-------2---|--------0---0---|----0-------0-4-|

G|----------------|----------------|----------------|--------|
D|----------------|----------------|2-----------2---|0-------|
A|0-------0-------|2-------2-------|----2-----------|--------|
E|----0-------0---|----2-------2---|--------0-------|--------|
                                                     Hold
G|--------------------------------|
D|----------------0-0---0---------|
A|--------------------------4-2---|
E|--------------------------------|

G|----------------|----------------|----------------|----------------|
D|----------------|----------------|----------------|----------------|
A|0-----0-0-------|0-----0-0-------|0-----0-0-------|0-----0-0-------|
E|----------------|--------------0-|----------------|--------------0-|

  Verse
G|----------------|----------------|----------------|----------------|
D|----------------|----------------|----------------|----------------|
A|0-----0-0-------|0-----0-0-------|0-----0-0-------|0-----0-0-------|
E|--------------0-|--------------0-|--------------0-|--------------0-|

G|----------------|----------------|----------------|----------------|
D|----------------|----------------|----------------|----------------|
A|0-----0-0-------|0-----0-0-------|0-----0-0-------|0-----0-0-------|
E|----------------|--------------0-|--------------0-|--------------0-|

G|----------------|----------------|
D|----------------|----------------|
A|0-----0-0-------|0-----0-0-------|
E|--------------0-|----------------|

  Chorus
G|----------------|----------------|----------------|----------------|
D|----------------|----------------|----------------|2---2-----------|
A|4-------4-------|----4-------4---|2-------2-------|----------------|
E|----4-------4---|2-------2-------|----2-------2---|--------0-0-2-4-|

G|----------------|----------------|----------------|----------------|
D|----------------|----------------|2---2-----------|----------------|
A|0-------0-------|2-------2-------|----------------|0-------0-------|
E|----0-------0---|----2-------2---|--------0---0---|----0-------0-4-|

G|----------------|----------------|----------------|--------|
D|----------------|----------------|2-----------2---|0-------|
A|0-------0-------|2-------2-------|----2-----------|--------|
E|----0-------0---|----2-------2---|--------0-------|--------|
                                                     Hold
G|--------------------------------|
D|----------------0-0---0---------|
A|--------------------------4-2---|
E|--------------------------------|

G|----------------|----------------|----------------|----------------|
D|----------------|----------------|2---2-----------|----------------|
A|0-------0-------|2-------2-------|----------------|0-------0-------|
E|----0-------0---|----2-------2---|--------0---0---|----0-------0-4-|

G|----------------|----------------|----------------|----------------|
D|----------------|----------------|2-----------2---|0---------------|
A|0-------0-------|2-------2-------|----2-----------|----------------|
E|----0-------0---|----2-------2---|--------0-------|----------------|

G|--------------------------------|----------------|----------------|
D|0-0---0-------------------------|----------------|----------------|
A|----------4-2---0---------------|----------------|----------------|
E|--------------------------------|----------------|----------------|
                  Hold

The short bars are two beats. The double width bars are four beats.
Suggest correction
Give kudos to tab author, rate the tab!
1 2 3 4 5
comments
print report bad tab
guest
You may want to rate the tab now too:
select rating
Wanna post a correction for this tab? Suggest correction