Oops, an error
Loading. Please wait.

A Wolf Who Wears Sheeps Clothes tab

4,531 views 147 this week
no commentswrite comment
1 2 3 4 5
x 8
add to favorites
×
Save as Personal and add changes to this tab that will be seen only by you. Learn more ›
×
You can save this tab as Personal to edit and correct it or add notes. All changes will be seen only by you. Learn more »
launch autoscroll
font size
0
reset
how to read this tab
guitar tuner
edit
Autoscroll
slow
fast
+/-
esc
set tempo
stop
[Info]
As always Mac pitched everything down a quarter note so if you want to play along you have to to tune up 1/4th
(455Hz reference pitch).
If you want to tune down instead just play everything one fret higher and put a capo on the first fret.
[Chords] mostly upstrokes, repeated throughout the whole song

     G6      Fmaj7     C       Fmaj7     G6      Fmaj7     C
e|---0--------0--------0--------0--------0--------0--------0-----------------|
B|---3--------1--------1--------1--------3--------1--------1-----------------|
G|---4--------2--------0--------2--------4--------2--------0-----------------|
D|---5--------3--------2--------3--------5--------3--------2-----------------|
A|---5--------3--------3--------3--------5--------3--------3-----------------|
E|---------------------------------------------------------------------------|

[Main Riff]                                           
e|---------------------------------------------------------------------------|
B|------------------------------------------------------12--12h13-12---------|
G|----12-----------12-----12-----------12-----12--------12--12----12---------|
D|----12h14p12\10--12-----12h14p12\10--12-----12h14---------------------14---|
A|---------------------------------------------------------------------------|
E|---------------------------------------------------------------------------|

e|---------------------------------------------------------------------------|
B|---------------------------------------------------------------------------|
G|----12\0------12-----------12----------------------------------------------|
D|----12\0------12h14p12\10--12-10/0-----------------------------------------|
A|---------------------------------------------------------------------------|
E|---------------------------------------------------------------------------|

[Solo] 
 [2:05]
 |PM---------------------------------------|    
e|---------------------------------------------------------------------------|
B|----------------------------------------------8----10-----/13--------------|
G|------------5--5---------5-5----(5)--(/9)-------------(9)------------------|
D|--------5-7---------5/7----------------------------------------------------|
A|---5/7---------------------------------------------------------------------|
E|---------------------------------------------------------------------------|

e|---------------------------------------------------------------------------|
B|---8--------------------------------------------5--------------------------|
G|------7pbr--5--------5--5\0--------------------x---2--(0)--/5--------------|
D|---------------(7)-----------------5-5--------x----------------------------|
A|------------------------------5/7------(7)---x-----------------------------|
E|---------------------------------------------------------------------------|
       
 [2:21]         
e|---------------------------------------------------------------------------|
B|---8------------------------------------8----------------------------------|
G|------7pbr\5------5-5---7~7---9-9/--------7pbr/5------5-5----7pm--5----/---|
D|-------------7pm---------------------------------7pm-------7pm-------------|
A|---------------------------------------------------------------------------|
E|---------------------------------------------------------------------------|
 
e|---------------------------------------------------------------------------|
B|---------------------------------------------------------------------------|
G|---------5-----5h7p5------5--5------5--------------------------------------|
D|---5--7-----7--------h7---------7-------7--5--7-------5--5-----------------|
A|---------------------------------------------------7-------5--7------------|
E|-----------------------------------------------------------------8---8\0---|

 [2:38]
e|---------------------------------------------------------------------------|
B|---------------------------------------------------------------------------|
G|-----------5---5-7-5---5---5-7-5---5---5-7-5---5---5--7/12-12\-------------|
D|-------5-7---7-------7---7-------7---7-------7---7-------------------------|
A|---/7----------------------------------------------------------------------|
E|---------------------------------------------------------------------------|
                                             |-song fades out....
e|---------------------------------------------------------------------------|
B|---------------------------------------------------------------------------|
G|----------5---5-7-5---5---5-7-5---5---5-7-5--------------------------------|
D|------5-7---7-------7---7-------7---7--------------------------------------|
A|---/7----------------------------------------------------------------------|
E|---------------------------------------------------------------------------|

************************************

| x   Dead note
|(n)  Ghost note
| h   Hammer-on
| p   Pull-off
| pbr Pre-bend release
| /   Slide up
| \   Slide down
| ~   Vibrato
| PM  Palm mute

************************************
Suggest correction
Creating personal tab
Creating personal tab
You can edit any tab online and save it as your Personal.

You can edit, replace or remove any tab part or add personal notes – all changes will be seen only by you.

Personal tabs can be accessed anytime from any device, even offline.
Learn more »
comments
print report bad tab
guest
You may want to rate the tab now too:
select rating
Wanna post a correction for this tab? Suggest correction