Oops, an error
Loading. Please wait.

Another One Tab

version 1
version 1

Whole song

  • Includes chords and a tab for the chorus.
64 views 27 this week
no commentswrite comment
1 2 3 4 5
3 more votes to show rating
add to favorites
launch autoscroll
font size
0
reset
how to read this tab
guitar tuner
Autoscroll
slow
fast
+/-
esc
set tempo
stop
Help us to improve Ultimate-Guitar.com Take our survey!
×
Author
Difficulty
intermediate
About this tab version
Includes chords and a tab for the chorus. Was this info helpful? Yes No
[Intro] (as tabbed by icendice430 but tabbed with no capo)

e|------------------------------------6-7------------------------------------|
B|---7---7---7-------------------5-7-----------------------------------------|
G|-----8---9-------6--------6-7----------------------------------------------|
D|--------------9----6-8-9---------------------------------------------------|
A|---------------------------------------------------------------------------|
E|---------------------------------------------------------------------------|

e|---------------------------------------------------------------------------|
B|---7---7---7-------------------5-7-----------------------------------------|
G|-----8---9-------6--------6-7------6---------------------------------------|
D|--------------9----6-8-9-------------9-------------------------------------|
A|---------------------------------------------------------------------------|
E|---------------------------------------------------------------------------|


[Verse]

e|--0---0---6-------5---9---6------------------------------------------------|
B|--0---0---7---4---7---7---7---4--------------------------------------------|
G|--1---2---8---4---7---7---6---6--------------------------------------------|
D|--2---2---8---6---7---5---8---6--------------------------------------------|
A|--2---4---6---6---5---5---6---4--------------------------------------------|
E|--0---0-------4---------------4--------------------------------------------|

[Chorus]
Chords
e|--5---4---2----------------------------------------------------------------|
B|--7---5---4----------------------------------------------------------------|
G|--7---4---4----------------------------------------------------------------|
D|--7---6---4----------------------------------------------------------------|
A|--5---4---2----------------------------------------------------------------|
E|---------------------------------------------------------------------------|
Lead
e|--------------------------------|----|-------------------------------------|
B|--10---------------------9-12---|----|10---------------------9-12----------|
G|-----11-13-9------8-9-11--------|----|---11-13-9------8-9-11---------------|
D|-------------9-11---------------|-X3-|-----------9-11----------------------| 
A|--------------------------------|----|-------------------------------------|
E|--------------------------------|----|-------------------------------------|


[Outro]

Essentially the chorus but the last time there is just one more note at the end
e|-------------------------------|------------------------------|--------------|
B|---10----------------------9-12|-10----------------------9-12-|10------------|
G|------11-13-9-------8-9-11-----|-----11-13-9------8-9-11------|---11-13-9----|
D|---------------9-11------------|-------------9-11-------------|-----------9--|
A|-------------------------------|------------------------------|--------------|
E|-------------------------------|------------------------------|--------------|


************************************

| x   Dead note

************************************
Suggest correction
Give kudos to tab author, rate the tab!
1 2 3 4 5
comments
print report bad tab
guest
You may want to rate the tab now too:
select rating
Wanna post a correction for this tab? Suggest correction