Oops, an error
Loading. Please wait.

Cooking Up Something Good Tab

version 1
version 1

Whole song

98,804 views 513 this week
11 commentsread comments
1 2 3 4 5
excellent!
x 33
add to favorites
launch autoscroll
font size
0
reset
how to read this tab
guitar tuner
Autoscroll
slow
fast
+/-
esc
set tempo
stop
Help us to improve Ultimate-Guitar.com Take our survey!
×
Author
Difficulty
Capo
Xnimez 1,625
novice
3rd fret
-------------------------------------------------------------------------------
                      Mac DeMarco - Cooking up something good
-------------------------------------------------------------------------------
Tabbed by: Tim van Kester
E-mail:

Tuning: Standard

The album version is played with capo on 3 (or capo on four and guitar tuned 
down one step), live version is played with capo on 4. Tabbed it relative to 
capo so it fits both versions. 
Please post a comment if you have some corrections!

[Intro] (timing and placement of mutes is probably a bit off, I think you'll
get it)
e|-0--0-0-x-0--x-0--x-0--5--5--5--5--5---7---1/2-x-2-x-x-1/2--2-x-2-x-2------|
B|-0--0-0-x-0--x-0--x-0--5--5--5--5--5---5---1/2-x-2-x-x-1/2--2-x-2-x-2------|
G|-1--1-1-x-1--x-1--x-1/-6--6--6--6--6---6---1/2-x-2-x-x-1/2--2-x-2-x-2------|
D|---------------------------------------------------------------------------|
A|---------------------------------------------------------------------------|
E|---------------------------------------------------------------------------|

e|-5--5--5--5--5---7---|
B|-5--5--5--5--5---5---|
G|-6--6--6--6--6---6---|
D|---------------------|
A|---------------------|
E|---------------------|

[Verse] (other guitarist continues the intro riff)
e|-0-----------------------------------------2-------------------------------|
B|-0-------------------1/2-------------------2---------------------------1/2-|
G|-1-------------------1/2-------------------2---------------------------1/2-|
D|-2-------------------1/2-------------------4---------------------------1/2-|
A|-2-----------------------------------------4-------------------------------|
E|-0-----------------------------------------2-------------------------------|

[Chorus chords]
e|-0-------------1----2------------------------------------------------------|
B|-0------3------1----2------------------------------------------------------|
G|-1------3------2----2------------------------------------------------------|
D|-2------2------3----4------------------------------------------------------|
A|-2------3------3----4------------------------------------------------------|
E|-0-------------1----2------------------------------------------------------|

[Chorus lead] - From 5sb until 5rp3, slowly bend the string up while plucking
the string a couple of time
e|---------------------------------------------------------------------------|
B|-5-5-5-5-5-5-5-5-5-3-3-3-5-5sb-5-5-5-5-5-5-5-5rp3----3-5-------------------|
G|---------------------------------------------------4-----------------------|
D|---------------------------------------------------------------------------|
A|---------------------------------------------------------------------------|
E|---------------------------------------------------------------------------|

Then repeat it verse and chorus some times.
[Ending chords]
e|-0---------------------------------0~--------------------------------------|
B|-0---------------------------------2~--------------------------------------|
G|-1---------------------------------0~--------------------------------------|
D|-2---------------------------------1~--------------------------------------|
A|-2---------------------------------2~--------------------------------------|
E|-0---------------------------------0---------------------------------------|

[Ending lead]
e|-0-----0-----0-----0-----0---------9~--------------------------------------|
B|---0-----0-----0-----0-----0-------9~--------------------------------------|
G|-----1-----1-----1-----1-----1-----9~--------------------------------------|
D|---------------------------------------------------------------------------|
A|---------------------------------------------------------------------------|
E|---------------------------------------------------------------------------|



************************************

| x  Dead note
| /  Slide up
| ~  Vibrato

************************************
Suggest correction new What's this?
You can suggest a correction to this tab. Community and Mods will review your correction and vote to approve or reject it.
comments
print report bad tab
11 comments total. Showing first comments.
+1 reply
Mpicarelli 13 wrote on August 1 2013, 08:03 pm

Great job!

0 reply
Dottori 17 wrote on November 13 2013, 12:43 pm

why does he play with a capo? the one chord with open notes can easily be played barred

0 reply
Xnimez 1,625 wrote on November 14 2013, 07:47 am

Good question, I don't know to be honest.

guest
You may want to rate the tab now too:
select rating
Please do not post tabs as comments. Select "correction" instead!