Oops, an error
Loading. Please wait.

Goodbye Weekend tab

version 2
version 2

Whole song

1,441 views 6 this week
no commentswrite comment
1 2 3 4 5
2 more votes to show rating
add to favorites
×
Save as Personal and add changes to this tab that will be seen only by you. Learn more ›
×
You can save this tab as Personal to edit and correct it or add notes. All changes will be seen only by you. Learn more »
launch autoscroll
font size
0
reset
how to read this tab
guitar tuner
edit
Autoscroll
slow
fast
+/-
esc
set tempo
stop
Author
-------------------------------------------------------------------------------
                             GOODBYE WEEKEND - Mac Demarco
-------------------------------------------------------------------------------
Tabbed by: JP 
This is how I play the song in my video here: https://www.youtube.com/watch?v=g7JaOTpYdXAT
This is not 100% exactly how Mac plays on the record. It's gotta be at least 95% though.
I don't play all the notes you hear in the verses on the recorded version since it seems like Mac does a lot of
weaving around with the lead and rhythm. It does seem like his lead guitar is playing the 4ish notes I have 
below. 
If you have any qualms with the tab, you can refer to how I play it in the video. Or comment.
It's your life. 

Tuning: Standard
Slightly sharp on the record

Intro/Verses: G, E7, Am7, D7
e|---------------------------------------------------------------------------|
B|-17--15----------------17--15-------------15-------------------------------|
G|---------14--16----------------14--14/16-----------------------------------|
D|---------------------------------------------------------------------------| Repeat as needed
A|---------------------------------------------------------------------------|
E|---------------------------------------------------------------------------|

Chorus: G, F7, Am7, D7
e|-----3----------5-----------------5--7/10----------------------------------|
B|--------3----------4-----4-----5-----------10------10----------------------|
G|-/4--------4/5--------5-----5------------------11--------------------------|
D|---------------------------------------------------------------------------|
A|---------------------------------------------------------------------------|
E|---------------------------------------------------------------------------|

e|-----3----------5-----------------5--7--2----------------------------------|
B|--------3----------4-----4-----5-----------3-----3-------------------------|
G|-/4--------4/5--------5-----5-----------------2----------------------------|
D|---------------------------------------------------------------------------|
A|---------------------------------------------------------------------------|
E|---------------------------------------------------------------------------|

e|-----3----------5-----------------5--7/10----------------------------------|
B|--------3----------4-----4-----5-----------10------10----------------------|
G|-/4--------4/5--------5-----5------------------11--------------------------|
D|---------------------------------------------------------------------------|
A|---------------------------------------------------------------------------|
E|---------------------------------------------------------------------------|

e|-----3----------5-----------------5--7--2--------2--2----------------------|
B|--------3----------4-----4-----5-----------3-----------3-------------------|
G|-/4--------4/5--------5-----5-----------------2-----------2----------------|
D|---------------------------------------------------------------------------|
A|---------------------------------------------------------------------------|
E|---------------------------------------------------------------------------|

Solo:
e|--------15-----------------------------------------------------------------|
B|-15/17------17--15--17--15------15-----------------------------------------|
G|----------------------------16------16--14--16/17\16--14--16--12--14-------|
D|---------------------------------------------------------------------------|
A|---------------------------------------------------------------------------|
E|---------------------------------------------------------------------------|

e|--------15-----------------------------------------------------------------|
B|-15/17------17--15--17--15------15-----------------------------------------|
G|----------------------------16------16--14--16/17\16--14--16--12--14-------|
D|---------------------------------------------------------------------------|
A|---------------------------------------------------------------------------|
E|---------------------------------------------------------------------------|

e|-17b18--17--15------15--17-------------------------------------------------|
B|----------------17---------------------------------------------------------|
G|---------------------------------------------------------------------------|
D|---------------------------------------------------------------------------|
A|---------------------------------------------------------------------------|
E|---------------------------------------------------------------------------|

e|--------15-----------------------------------------------------------------|
B|-15/17------17--15--17--15------15-----------------------------------------|
G|----------------------------16------16--14--16/17\16--14--16--12--14-------|
D|---------------------------------------------------------------------------|
A|---------------------------------------------------------------------------|
E|---------------------------------------------------------------------------|

e|--------15-------------------------------------------------------------------------|
B|-15/17------17--15--17--15------15-------------------------------------------------|
G|----------------------------16------16--14--16/17\16--14--16/19--19b21--19b21--19--|
D|-----------------------------------------------------------------------------------|
A|-----------------------------------------------------------------------------------|
E|-----------------------------------------------------------------------------------|

Song Order:
Intro
Verse
Chorus
Verse 
Chorus
Solo


************************************

| /   slide up
| \   slide down
| h   hammer-on
| p   pull-off
| ~   vibrato
| +   harmonic
| x   Mute note
| b   Bend
| pb  Pre-bend
| br  Bend release
| pbr Pre-bend release
| brb Bend release bend

************************************

            
            
Suggest correction
Creating personal tab
Creating personal tab
You can edit any tab online and save it as your Personal.

You can edit, replace or remove any tab part or add personal notes – all changes will be seen only by you.

Personal tabs can be accessed anytime from any device, even offline.
Learn more »
Give kudos to tab author, rate the tab!
1 2 3 4 5
comments
print report bad tab
guest
You may want to rate the tab now too:
select rating
Wanna post a correction for this tab? Suggest correction