Oops, an error
Loading. Please wait.

Goodbye Weekend tab

version 3
version 3

Whole song

4,591 views 60 this week
2 commentsread comments
1 2 3 4 5
x 4
add to favorites
×
Save as Personal and add changes to this tab that will be seen only by you. Learn more ›
×
You can save this tab as Personal to edit and correct it or add notes. All changes will be seen only by you. Learn more »
launch autoscroll
font size
0
reset
how to read this tab
guitar tuner
edit
Autoscroll
slow
fast
+/-
esc
set tempo
stop
Author
Difficulty
intermediate
SONG NAME - Band Name
Tabbed by: Simon Deleersnijder
E-mail: simon@peacytea.com
Tuning: Standard (EADGBE) but tuned a quarter step up (or down I forgot)

Rhythm guitar chords (All chords relative to capo on 3rd fret)
Verse:
E, C#7, A, F#m6add9 (xx4244), F#m6 (xx4242)
Chorus:
E, D, A, F#m6

[Verse]
e|-12----10----5-----5/7-----------------------------------------------------|
B|---------------------------------------------------------------------------|
G|----12-----9-----5------8--------------------------------------------------|
D|---------------------------------------------------------------------------|
A|---------------------------------------------------------------------------|
E|---------------------------------------------------------------------------|

[Chorus]
e|----3----------5---------5----------5---7/10---------7---------------------|
B|-------3----------4---------4/5---------------8----------------------------|
G|----------4/5--------5-----------5---------------9-------------------------|
D|-5-------------------------------------------------------------------------|
A|---------------------------------------------------------------------------|
E|---------------------------------------------------------------------------|

e|----3----------5---------5----------5---7----------------------------------|
B|-------3----------4---------4/5------------7--------7----------------------|
G|----------4/5--------5-----------5------------5----------------------------|
D|-5------------------------------------------------7------------------------|
A|---------------------------------------------------------------------------|
E|---------------------------------------------------------------------------|

[Solo]
e|--------15-----------------------------------------------------------------|
B|-15/17------17--15--17--15--12--15---12------12--13--12------12------------|
G|-----------------------------------------14--------------14------12--14----|
D|---------------------------------------------------------------------------|
A|---------------------------------------------------------------------------|
E|---------------------------------------------------------------------------|

e|--------15-----------------------------------------------------------------|
B|-15/17------17--15--17--15--12--15---12------12--13--12------12------------|
G|-----------------------------------------14--------------14------12--14----|
D|---------------------------------------------------------------------------|
A|---------------------------------------------------------------------------|
E|---------------------------------------------------------------------------|

e|-17b--17--15------15--17---------------------------------------------------|
B|--------------17-----------------------------------------------------------|
G|---------------------------------------------------------------------------|
D|---------------------------------------------------------------------------|
A|---------------------------------------------------------------------------|
E|---------------------------------------------------------------------------|

e|--------15-----------------------------------------------------------------|
B|-15/17------17--15--17--15--12--15---12------12--13--12------12------------|
G|-----------------------------------------14--------------14------12--14----|
D|---------------------------------------------------------------------------|
A|---------------------------------------------------------------------------|
E|---------------------------------------------------------------------------|

e|--------15-----------------------------------------------------------------|
B|-15/17------17--15--17--15--12--15---12------12--13--12------12--15--------|
G|-----------------------------------------14--------------14----------14----|
D|---------------------------------------------------------------------------|
A|---------------------------------------------------------------------------|
E|---------------------------------------------------------------------------|

e|---------------------------------------------------------------------------|
B|--15b--15b--15-------------------------------------------------------------|
G|---------------------------------------------------------------------------|
D|---------------------------------------------------------------------------|
A|---------------------------------------------------------------------------|
E|---------------------------------------------------------------------------|

************************************

| /   slide up
| \   slide down
| h   hammer-on
| p   pull-off
| ~   vibrato
| +   harmonic
| x   Mute note
| b   Bend
| pb  Pre-bend
| br  Bend release
| pbr Pre-bend release
| brb Bend release bend

************************************
Suggest correction
Creating personal tab
Creating personal tab
You can edit any tab online and save it as your Personal.

You can edit, replace or remove any tab part or add personal notes – all changes will be seen only by you.

Personal tabs can be accessed anytime from any device, even offline.
Learn more »
comments
print report bad tab
2 comments total.
+1 reply
fenderdude2376 22 Feb 06, 2016 12:34 PM

Finally, thank you good sir

+2 reply
morallita6659 10 Feb 06, 2017 10:09 PM

I feel like on the verse (first tab) there is no need for a 5/7 just 7 it sounds more accurate to me.

guest
You may want to rate the tab now too:
select rating
Wanna post a correction for this tab? Suggest correction