Oops, an error
Loading. Please wait.

Ive Been Waiting For Her solo tab

version 1
version 1

Solo

Whole song

846 views 18 this week
no commentswrite comment
1 2 3 4 5
1 last vote to show rating
add to favorites
×
Save as Personal and add changes to this tab that will be seen only by you. Learn more ›
×
You can save this tab as Personal to edit and correct it or add notes. All changes will be seen only by you. Learn more »
launch autoscroll
font size
0
reset
how to read this tab
guitar tuner
edit
Autoscroll
slow
fast
+/-
esc
set tempo
stop
Standard Tuning                                      Mac DeMarco
Capo 2nd Fret                          I've Been Waiting For Her
Relative to capo                              Another One - 2015  
----------------------------------------------------------------

e|---------------------------------------------------7-| 
B|----\10--10-10-9-9-7-7-9-9-7-7-5-5-4-4-5\7---7\9-9---|  
G|-----------------------------------------------------|   
D|-----------------------------------------------------|    
A|-----------------------------------------------------|     
E|-----------------------------------------------------|
                                                  
e--------------------------------------------------------|    
B|--\12--12-12-10-10-9-9-10-10-9-9-7-7-5-5-4-5---4h5-4---| 
G|-----------------------------------------------------4-|    
D|-------------------------------------------------------|  
A|-------------------------------------------------------|  
E|-------------------------------------------------------| 

play both riffs, one after the other, twice.

----------------------------------------------------------------

            
            
Suggest correction
Creating personal tab
Creating personal tab
You can edit any tab online and save it as your Personal.

You can edit, replace or remove any tab part or add personal notes – all changes will be seen only by you.

Personal tabs can be accessed anytime from any device, even offline.
Learn more »
Give kudos to tab author, rate the tab!
1 2 3 4 5
comments
print report bad tab
guest
You may want to rate the tab now too:
select rating
Wanna post a correction for this tab? Suggest correction