Oops, an error
Loading. Please wait.

Just To Put Me Down Tab

version 1
version 1

Solo

  • What the second guitar plays during the repeated refrain that closes the song.

Whole song

235 views 18 this week
no commentswrite comment
1 2 3 4 5
3 more votes to show rating
add to favorites
launch autoscroll
font size
0
reset
how to read this tab
guitar tuner
Autoscroll
slow
fast
+/-
esc
set tempo
stop
Help us to improve Ultimate-Guitar.com Take our survey!
×
Author
Difficulty
advanced
About this tab version
What the second guitar plays during the repeated refrain that closes the song. Was this info helpful? Yes No
-----------------------------------------------------------------
               Mac DeMarco - Just To Put Me Down
-----------------------------------------------------------------

Tabbed By : Aeonoptic
e-mail: aeonoptic@gmail.com

Tuning: EADGBe

  F#                         B                             E7                         C#
E|--------------------------|-----------------------------|--------------------------|---------------|
B|--------------------------|-----------------------------|--------------------------|------14-14-14\|
G|------------11----11-13-13|------------11----11-13/15-15|------------11----11-13-13|13/15----------|
D|------11-13----13---------|------11-13----13------------|------11-13----13---------|---------------|
A|11h13---------------------|11h13------------------------|11h13---------------------|---------------|
E|--------------------------|-----------------------------|--------------------------|---------------|

  F#                         B                             E7                         C#
E|--------------------------|-----------------------------|--------------------------|------------------|
B|--------------------------|-----------------------------|--------------------------|------14-16-16b19\|
G|------------11----11-13-13|------------11----11-13/15-15|------------11----11-13-13|13/15-------------|
D|------11-13----13---------|------11-13----13------------|------11-13----13---------|------------------|
A|11h13---------------------|11h13------------------------|11h13---------------------|------------------|
E|--------------------------|-----------------------------|--------------------------|------------------|

  F#                         B                             E7                         C#
E|--------------------------|-----------------------------|--------------------------|---------------|
B|--------------------------|-----------------------------|--------------------------|------14-14-14\|
G|------------11----11-13-13|------------11----11-13/15-15|------------11----11-13-13|13/15----------|
D|------11-13----13---------|------11-13----13------------|------11-13----13---------|---------------|
A|11h13---------------------|11h13------------------------|11h13---------------------|---------------|
E|--------------------------|-----------------------------|--------------------------|---------------|

  F#                         B                             E7                         C#
E|--------------------------|-----------------------------|--------------------------|------------------|
B|--------------------------|-----------------------------|--------------------------|------14----------|
G|------------11----11-13-13|------------11----11-13/15-15|------------11----11-13-13|13/15----15\13-11~|
D|------11-13----13---------|------11-13----13------------|------11-13----13---------|------------------|
A|11h13---------------------|11h13------------------------|11h13---------------------|------------------|
E|--------------------------|-----------------------------|--------------------------|------------------|

  F#                B                 E7              C#
E|-----------------|-----------------|---------------|14-14--14\|
B|16h17p16p14-16-16|16h17p16p14-16-16|16br17p14-16-16|----------|
G|-----------------|-----------------|---------------|----------|
D|-----------------|-----------------|---------------|----------|
A|-----------------|-----------------|---------------|----------|
E|-----------------|-----------------|---------------|----------|

  F#              B               E7                   C#
E|---------------|---------------|16h17p16p14-16----14|----------------------|
B|16br17p14-16-16|16br17p14-16-16|---------------17---|16-17-14--------------|
G|---------------|---------------|--------------------|---------16-15-13-----|
D|---------------|---------------|--------------------|------------------16~~|
A|---------------|---------------|--------------------|----------------------|
E|---------------|---------------|--------------------|----------------------|

  F#  B           E7          C#
E|---|-----------|-----------|---|
B|---|----------7|----------7|---|
G|---|8h9p8p6-9--|8h9p8p6-9--|---|
D|---|-----------|-----------|---|
A|---|-----------|-----------|---|
E|---|-----------|-----------|---|

  F#                 B                  E7                 C#
E|------------------|------------------|------------------|14-14--14\|
B|------------------|------------------|/16h17p16p14-16-17|----------|
G|15br16p13---------|15br16p13---------|------------------|----------|
D|----------16-14-16|----------16-14-16|------------------|----------|
A|------------------|------------------|------------------|----------|
E|------------------|------------------|------------------|----------|

  F#                                     B                       E7              C#
E|16h17p16p14-16----14------------------|------------------------|---------------|---------------|
B|---------------17----16-17-14---------|------------------------|---------------|---------------|
G|------------------------------16-15-13|16-15-13----------------|---------------|---------------|
D|--------------------------------------|----------16-14p13-14-13|---------------|---------------|
A|--------------------------------------|------------------------|16-14-13-16-16\|13h14-13-14-16\|
E|--------------------------------------|------------------------|---------------|---------------|

  F#  B        E7       C#
E|---|--------|--------|--------|
B|---|--------|--------|--------|
G|---|3-4--4-6|6-6--8-8|9-11-11\|
D|4-6|--------|--------|--------|
A|---|--------|--------|--------|
E|---|--------|--------|--------|

  F#             B              E7                            C#
E|16h17p16p14-16|16h17p16p14-16|16h17p16p14-16----14---------|-----------------------------------|
B|--------------|--------------|---------------17----16-17-14|-----------------------------------|
G|--------------|--------------|-----------------------------|16-15-13-16-15-13------------------|
D|--------------|--------------|-----------------------------|------------------16-14-13-16-14-13|
A|--------------|--------------|-----------------------------|-----------------------------------|
E|--------------|--------------|-----------------------------|-----------------------------------|

  F#       B     E7          C#
E|--------|-----|-----------|--------------|
B|--------|-----|-----------|--------------|
G|--------|-----|-----------|------------14|
D|---14-16|14-16|14-16-14-16|14-16-14-16---|
A|16------|-----|-----------|--------------|
E|--------|-----|-----------|--------------|

  F#   B               E7                      C#
E|----|---------------|-----------------------|-----------------|
B|----|----------14-14|17-14------------------|-----------------|
G|----|/16-14-16------|------16-15-13-16-15-13|-----------------|
D|16~~|---------------|-----------------------|16-14-13-16-14-13|
A|----|---------------|-----------------------|-----------------|
E|----|---------------|-----------------------|-----------------|

  F#       B 
E|--------|----------------|
B|--------|11h12p11p8-11-11|
G|--------|----------------|
D|---14-16|----------------|
A|16------|----------------|
E|--------|----------------|

Fades playing a descending figure (similar to before)


| /  slide up
| \  slide down
| h  hammer-on
| p  pull-off
| ~  vibrato
| +  harmonic
| x  Mute note
Suggest correction
Give kudos to tab author, rate the tab!
1 2 3 4 5
comments
print report bad tab
guest
You may want to rate the tab now too:
select rating
Wanna post a correction for this tab? Suggest correction