Oops, an error
Loading. Please wait.

Moonlight On The River solo tab

version 1
version 1

Solo

Whole song

  • Basic chords Mac strums on his Gibson acoustic at the lolla in 2017.
2,176 views 87 this week
4 commentsread comments
1 2 3 4 5
x 9
add to favorites
×
Save as Personal and add changes to this tab that will be seen only by you. Learn more ›
×
You can save this tab as Personal to edit and correct it or add notes. All changes will be seen only by you. Learn more »
launch autoscroll
font size
0
reset
how to read this tab
guitar tuner
edit
Autoscroll
slow
fast
+/-
esc
set tempo
stop
[Outro/Solo]
e|----------------------------------------------------------------------------------|
B|-10-------10-------10-----10------10------10-12--13--13------13------13---13------|
G|----12-------12-------12-----9-------9------------------9-------9-------9----9----|
D|-------13-------13-------------10------10-----------------12------12-----------12-|
A|----------------------------------------------------------------------------------|
E|----------------------------------------------------------------------------------|
and you pretty much repeat this the entire end of the song
feel free to add what you think sounds better, i attempted to tab it out just by ear.

            
            
Suggest correction
Creating personal tab
Creating personal tab
You can edit any tab online and save it as your Personal.

You can edit, replace or remove any tab part or add personal notes – all changes will be seen only by you.

Personal tabs can be accessed anytime from any device, even offline.
Learn more »
comments
print report bad tab
4 comments total. Showing first comments.
0 reply
Dieu des hommes 271 May 09, 2017 08:07 AM

should be

e|---------------------------------------------------------------------|
B|10------10--------10-----10------10-----10--12--13-----13-----13-----|
G|---12------12--------12-----9------9---------------10-----10-----10--|
D|------12------12--------------10----10----------------12----12-------|
A|---------------------------------------------------------------------|
E|---------------------------------------------------------------------|

ad infinitum

0 reply
rjf100 63 Jun 02, 2017 11:18 AM, edited at 03:19 pm

i think its more like:e|----------------------------------------------------------------------|B|9------9--------9-----9------9------9--11--12---------12--------12----|G|--11-----11-------11----8------8--------------------------------------|D|-----11-----11------------9------9------------13--11-----13-11-----13-|A|----------------------------------------------------------------------|E|----------------------------------------------------------------------|

guest
You may want to rate the tab now too:
select rating
Wanna post a correction for this tab? Suggest correction