Oops, an error
Loading. Please wait.
We have an official My Kind Of Woman tab made by UG professional guitarists. Check out the tab »
×

My Kind Of Woman chords

version 1
version 1

Whole song

  • This version offers a different style of Mac DeMar... Show more
  • More intricate chords. No capo.

Interactive

169,480 views 1,503 this week
3 commentsread comments
1 2 3 4 5
x 23
add to favorites
×
Save as Personal and add changes to this tab that will be seen only by you. Learn more ›
×
You can save this tab as Personal to edit and correct it or add notes. All changes will be seen only by you. Learn more »
launch autoscroll
font size
0
reset
transpose
0
reset
display chords
guitar tuner
edit
Autoscroll
slow
fast
+/-
esc
set tempo
stop
Strumming
There is no strumming pattern for this song yet. and get +5 IQ
E-mail: Mcgridleez@yahoo.com

Song: My Kind Of Woman

Artist: Mac Demarco

Tuning (Lead/ Rhythm): Standard(EADGBe)

Tuning (Bass) : Standard (EADG)

Capo: 2nd Fret

I've been addicted to this song for God knows how long, so I figured, "What the hell?" I 
decided to combine both the bass and guitar sections as best I can.

Chords
[ Em | C | G | Am | Bm ]

Alternatively, you can play without a capo. Obviously, the tab remains unchanged, but 
the chords will be as follows:

Em = F#m

G = D

C = A

Am = Bm

Bm = C#m

[Verse Riff] (Lead)

e|-12---10----9-----------9----------9-----------|
B|-10---10----10-10----10---10----10---10----10--|
G|------------------11---------11---------11-----|
D|-----------------------------------------------|
A|-----------------------------------------------|
E|-----------------------------------------------|

e|-9---7------5-------5-------2--------|
B|-7---7------5-5---5---5---5-2-2---2--|
G|----------------6-------6-------2----|
D|-------------------------------------|
A|-------------------------------------|
E|-------------------------------------| 

e|-9---7------5-------5-------2--------12---10--|
B|-7---7------5-5---5---5---5-2-2---2--10---10--|
G|----------------6-------6-------2-------------|
D|----------------------------------------------|  <----- Play this section
A|----------------------------------------------|      once before the chorus
E|----------------------------------------------| 

[Chorus Riff] (Lead)

e|-9-----------9----------9-----------12--12--|
B|-10-10----10---10----10---10----10--10--10--|
G|-11----11---------11---------11-------------|
D|--------------------------------------------|
A|--------------------------------------------|
E|--------------------------------------------|

e|-9--------9-------9--------10--10--|
B|-9--9---9---9---9---9---9--9---9---|
G|-9----9-------9-------9------------|
D|-----------------------------------|
A|-----------------------------------|
E|-----------------------------------|

[Verse Riff] (Bass)

G|-----------------------------------------------------------------|
D|-----------------------------------------------------------------|
A|-7-7--7-5-5--5-5-5--5-5-5--5-2-2-2-------------------------------|
E|-------------------------------------5-5--5-5-5--5-2-2--2-0-0--0-|

[Chorus Riff] (Bass)

G|------------------------------------------------------|
D|------------------------------------------------------|
A|--------2-2--2-4-4--4-5-5--5-2-2--2-2-2--2-2-2--2-2-2-|
E|-5-5--5-----------------------------------------------|


-----------------------------------------------------------------------------

[Intro] Em

(Lead)
e|-2-------|
B|-2-------|
G|-2-------|
D|---------|
A|---------|
E|---------|

(Bass)
G|-------------------|
D|-------------------|
A|-9-9--9-9-9--9-9-9-|
E|-------------------|



[Verse 1]

     C
Oh baby
     G  Em
Oh man
                     C
You're making me crazy
                     G  Em
Really drivin' me mad
                     C
That's alright with me
                   G  Em
It's really no fuss
                       C
As long as you're next to me
                   G  Em
Just the two of us


[Chorus]

       G  Am  Bm  C         Bm
You're my my my, my kind of woman
G  Am  Bm  C        Bm
My oh my, what a girl
       G  Am  Bm  C         Bm
You're my my my, my kind of woman
        G          Am
And I'm down on my hands and knees
Bm                 C
Begging you please baby
       Bm
Please show me your world

Em


[Verse 2]

         C
Oh brother
         G  Em
Sweetheart
               C
I'm feeling so tired
                  G  Em
Really fallin' apart
                            C
And it just don't make sense to me
                   G  Em
I really don't know
                        C
Why you stick right next to me
            G  Em
Wherever I go


[Chorus]

       G  Am  Bm  C         Bm
You're my my my, my kind of woman
G  Am  Bm  C        Bm
My oh my, what a girl
       G  Am  Bm  C         Bm
You're my my my, my kind of woman
        G          Am
And I'm down on my hands and knees
Bm                 C
Begging you please baby
       Bm
Please show me your world


[Outro] Em

(Lead)
e|-2-------|
B|-2-------|
G|-2-------|
D|---------|
A|---------|
E|---------|

(Bass)
G|-------------------|
D|-------------------|
A|-9-9--9-9-9--9-9-9-|
E|-------------------|

            
            
Suggest correction
Creating personal tab
Creating personal tab
You can edit any tab online and save it as your Personal.

You can edit, replace or remove any tab part or add personal notes – all changes will be seen only by you.

Personal tabs can be accessed anytime from any device, even offline.
Learn more »
comments
print report bad tab
3 comments total.
0 reply
andykndr 54 Jun 03, 2013 09:18 AM

On capo 2 G is actually A in open tuning, and C is D

0 reply
jamesharrison9 307 Apr 10, 2014 12:55 AM

I think that the verse chord progression should be Em, D, C, G that extra D in-between Em & C might be a bass part but I think it helps smooth an acoustic version over?

Good tab though thanks!

0 reply
fretstar34 10 Nov 08, 2016 10:53 PM

I would tweak a few things for a smoother acoustic version. For example I would play a Dmaj7 instead of a regular D and also throw in a E major in between the chord progression in the verses like so:

intro

E - Dmaj7
Oh baby

E - A
Oh man

The rest of the tab was really helpful thanks!

guest
Wanna post a correction for this tab? Suggest correction