Oops, an error
Loading. Please wait.
We have an official My Kind Of Woman tab made by UG professional guitarists. Check out the tab »
×
889 views 6 this week
no commentswrite comment
1 2 3 4 5
2 more votes to show rating
add to favorites
×
Save as Personal and add changes to this tab that will be seen only by you. Learn more ›
×
You can save this tab as Personal to edit and correct it or add notes. All changes will be seen only by you. Learn more »
launch autoscroll
font size
0
reset
how to read this tab
guitar tuner
edit
Autoscroll
slow
fast
+/-
esc
set tempo
stop
Author
Difficulty
(/) Slide Up  (\) Slide Down  (h) Hammer On  (p) Pull Off  (b) Bend (r) Release (v) Vibrato

Tuning: Standart, allthough I detune and put a capo on second fret, to make it gentler on my precious joints
(I'm not Django)

I know the first chord of the chorus is impossible for us people who canot bend the tips of our fingers the
other way, so what I do is I play the A string and mute the D string with my finger.


This is my version of Maccie's precious woman, it's not how he does it, but I believe it works when there's 
no support band


Apply fingerpicking where wanted



intro, let the Em-chord ring:

E|--0--------------------------------|
B|--0--------------------------------|
G|--0--------------------------------|
D|--2--------------------------------|
A|--2--------------------------------|
E|--0--0--0--0--0--0--0--0--0--0--0--|

    Em



Verse:

E|-----10----8----7----7--7--7--7--7--7--7--7--7--7--7--7--|
B|-----7-----7----8----8--8--8--8--8--8--8--8--8--8--8--8--|
G|-----7-----7----9----9--9--9--9--9--9--9--9--9--9--9--9--|
D|-----7-----7----9----9--9--9--9--9--9--9--9--9--9--9--9--|
A|-----9-----7----7----7--7--7--7--7--7--7--7--7--7--7--7--|
E|---------------------------------------------------------|

Ooh honey,
You're making me crazy,
But that's allright with me,
As long as you're next to me,

E|----7----5----3--3--3--3--3--3--3--3--0--0--0--0--|
B|----8----7----3--3--3--3--3--3--3--3--0--0--0--0--|
G|----9----7----4--4--4--4--4--4--4--4--4--4--4--4--|
D|----9----7----5--5--5--5--5--5--5--5--5--5--5--5--|
A|----7----5----5--5--5--5--5--5--5--5--5--5--5--5--|
E|--------------3--3--3--3--3--3--3--3--0--0--0--0--|

Ooh man,
You're really driving me mad,
It's really no fuss,
Just the two of us,



Chorus:


E|--7--7--7--7--7--7--7--7--7--7--7--7--10--10--|
B|--3--3--3--3--5--5--5--5--7--7--7--7----------|
G|--4--4--4--4--5--5--5--5--7--7--7--7----------|
D|--5--5--5--5--7--7--7--7--9--9--9--9--9---9---|
A|--5--5--5--5--7--7--7--7--9--9--9--9--9---9---|
E|--3--3--3--3--5--5--5--5--7--7--7--7--8---8---|

You're my,      my,         my,          kind of
My,             oh,         my,           what a
And I'm down on knees       begging you please baby


E|--8--8--8--8--8--8--8--8--8--8--8--8--|
B|--6--6--6--6--6--6--6--6--6--6--6--6--|
G|--6--6--6--6--6--6--6--6--6--6--6--6--|
D|--8--8--8--8--8--8--8--8--8--8--8--8--|
A|--8--8--8--8--8--8--8--8--8--8--8--8--|
E|--6--6--6--6--6--6--6--6--6--6--6--6--|

Woman
girl
just show me your world,

Bridge:

E|--8--8--0--
B|--7--7--0--
G|--7--7--0--
D|--7--7--2-- let it ring
A|--7--7--2--
E|--7--7--0--0--0--0--0--0--0--0--0--0--0--0--0



Verse 2:

Oh brother, sweetheart
I'm feeling so tired, really falling apart
And it just don't make sense to me, I really don't know
Why you stick right next to me wherever I go


Chorus


You're my, my, my, my kind of woman
My, oh my, what a girl
You're my, my, my, my kind of woman
And I'm down on my hands and knees
Begging you please, baby, show me your world 




eat the pussy delish

            
            
Suggest correction
Creating personal tab
Creating personal tab
You can edit any tab online and save it as your Personal.

You can edit, replace or remove any tab part or add personal notes – all changes will be seen only by you.

Personal tabs can be accessed anytime from any device, even offline.
Learn more »
Give kudos to tab author, rate the tab!
1 2 3 4 5
comments
print report bad tab
guest
You may want to rate the tab now too:
select rating
Wanna post a correction for this tab? Suggest correction