Oops, an error
Loading. Please wait.
We have an official My Kind Of Woman tab made by UG professional guitarists. Check out the tab »
×
2,992 views 39 this week
1 commentread comment
1 2 3 4 5
x 4
add to favorites
×
Save as Personal and add changes to this tab that will be seen only by you. Learn more ›
×
You can save this tab as Personal to edit and correct it or add notes. All changes will be seen only by you. Learn more »
launch autoscroll
font size
0
reset
how to read this tab
guitar tuner
edit
Autoscroll
slow
fast
+/-
esc
set tempo
stop
-------------------------------------------------------------------------------
                             My Kind of Woman - Mac Demarco
-------------------------------------------------------------------------------
Tabbed by: Alex Tomaszewski
E-mail: zevvski@gmail.com

Tuning: EADGBE (Standard)
Capo 2
Tab relative to Capo


Hit this chord once before verse 1
e|-0--|
B|-0--|
G|-0--|
D|-2--|
A|-2--|
E|-0--|

Verse 1:
e|---------10---8----7---------7----------7-----------8----5----3---------3----------0--------|
B|---------10---8----8------8----------8----------8---8----7----3------3--------0----0------0-|
G|---------9----9----9---9----------9----------9------9----7----4---4--------0-------0---0----|x4
D|--------------------------------------------------------------------------------------------|
A|--------------------------------------------------------------------------------------------|
E|--------------------------------------------------------------------------------------------|
Oh baby, oh man
You're making me crazy, really driving me mad
That's all right with me, it's really no fuss
As long as you're next to me just the two of us

Chorus:
e|-7---------7---------7--------10---10---7----------7--------7----------8----8------|
B|-8------8---------8--------8--8----8----8-------8--------8--------8----8----8------|
G|-7---7---------7--------7-----7----7----7----7--------7--------7-------7----7------|   x4
D|-----------------------------------------------------------------------------------|
A|-----------------------------------------------------------------------------------|
E|-----------------------------------------------------------------------------------|
You're my, my, my, my kind of woman
My, oh my, what a girl
You're my, my, my, my kind of woman
And I'm down on my hands and knees
Begging you please, baby, show me your world

e|-0-|
B|-0-|
G|-0-|   x1
D|---|
A|---|
E|---|


Verse 2:
e|---------10---8----7---------7----------7-----------8----5----3---------3----------0--------|
B|---------10---8----8------8----------8----------8---8----7----3------3--------0----0------0-|
G|---------9----9----9---9----------9----------9------9----7----4---4--------0-------0---0----|x4
D|--------------------------------------------------------------------------------------------|
A|--------------------------------------------------------------------------------------------|
E|--------------------------------------------------------------------------------------------|
Oh brother, sweetheart
I'm feeling so tired, really falling apart
And it just don't make sense to me, I really don't know
Why you stick right next to me wherever I go

Chorus:
e|-7---------7---------7--------10---10---7----------7--------7----------8----8------|
B|-8------8---------8--------8--8----8----8-------8--------8--------8----8----8------|
G|-7---7---------7--------7-----7----7----7----7--------7--------7-------7----7------|   x4
D|-----------------------------------------------------------------------------------|
A|-----------------------------------------------------------------------------------|
E|-----------------------------------------------------------------------------------|
You're my, my, my, my kind of woman
My, oh my, what a girl
You're my, my, my, my kind of woman
And I'm down on my hands and knees
Begging you please, baby, show me your world

e|-0--|
B|-0--|
G|-0--|   x1
D|-2--|  
A|-2--|
E|-0--|
Suggest correction
Creating personal tab
Creating personal tab
You can edit any tab online and save it as your Personal.

You can edit, replace or remove any tab part or add personal notes – all changes will be seen only by you.

Personal tabs can be accessed anytime from any device, even offline.
Learn more »
comments
print report bad tab
1 comment total.
+1 reply
but9ybobg 10 Sep 06, 2015 01:54 AM

perfect tab dude nice job!

guest
You may want to rate the tab now too:
select rating
Wanna post a correction for this tab? Suggest correction