Oops, an error
Loading. Please wait.

No Other Heart bass

version 1
version 1

Whole song

  • This one is way more accurate if not completely co... Show more
  • Pretty dang correct if I do say so myself.
4,634 views 24 this week
7 commentsread comments
1 2 3 4 5
x 6
add to favorites
×
Save as Personal and add changes to this tab that will be seen only by you. Learn more ›
×
You can save this tab as Personal to edit and correct it or add notes. All changes will be seen only by you. Learn more »
launch autoscroll
font size
0
reset
guitar tuner
edit
Autoscroll
slow
fast
+/-
esc
set tempo
stop
Author
Difficulty
Tabbed by: 6METAL6BASSIST6
E-mail: petergriffinav@gmail.com

Tuning: 1/4th step down

G|----------------------------------------------------------------------------|
D|12--12--12----------------------------12--12--12----------------------------|
A|-----------12-------------------12h14------------12-------------------12h14-|
E|--------------10------10--12h14---------------------10------10--12h14-------|

G|----------------------14--12----------------------------14--12------|        > x6  
D|--------------14--------------14----------------14--------------14--|
A|12--12--14/16---------------------12--12--14/16---------------------|
E|--------------------------------------------------------------------|

1:01

G|----------------------------------------------------------------|
D|------------------------------------------------11--11------11--|
A|10--10------10--10--10------10--13--13------13------------------|
E|----------------------------------------------------------------|

G|----------------------------------------------------------------|
D|12--12------12----------------------------------12--12----------|
A|----------------9---12--12--13--14--14------14--------------14--|
E|----------------------------------------------------------------|

G|-------------------------------------------------------------------|
D|14--14----------14--14----------16--16-----------16--14--12-14-12--|
A|------------14--------------14--------------14---------------------|
E|-------------------------------------------------------------------|

G|----------------------------------------------------------------------------|
D|12--12--12----------------------------12--12--12----------------------------|
A|-----------12-------------------12h14------------12-------------------12h14-|
E|--------------10------10--12h14---------------------10------10--12h14-------|

1:21

G|----------------------------------------------------------------------------|
D|12--12--12----------------------------12--12--12----------------------------|
A|-----------12-------------------12h14------------12-------------------12h14-|
E|--------------10------10--12h14---------------------10------10--12h14-------|

G|----------------------14--12----------------------------14--12------|        > x4
D|--------------14--------------14----------------14--------------14--|
A|12--12--14/16---------------------12--12--14/16---------------------|
E|--------------------------------------------------------------------|

2:03

G|----------------------------------------------------------------|
D|------------------------------------------------11--11------11--|
A|10--10------10--10--10------10--13--13------13------------------|
E|----------------------------------------------------------------|

G|----------------------------------------------------------------|
D|12--12------12----------------------------------12--12----------|
A|----------------9---12--12--13--14--14------14--------------14--|
E|----------------------------------------------------------------|

G|-------------------------------------------------------------------|
D|14--14----------14--14----------16--16-----------16--14--12-14-12--|
A|------------14--------------14--------------14---------------------|
E|-------------------------------------------------------------------|

G|----------------------------------------------------------------------------|
D|12--12--12----------------------------12--12--12----------------------------|
A|-----------12-------------------12h14------------12-------------------12h14-|
E|--------------10------10--12h14---------------------10------10--12h14-------|

2:22

G|----------------------------------------------------------------|
D|------------------------------------------------11--11------11--|
A|10--10------10--10--10------10--13--13------13------------------|
E|----------------------------------------------------------------|

G|----------------------------------------------------------------|
D|12--12------12----------------------------------12--12----------|
A|----------------9---12--12--13--14--14------14--------------14--|
E|----------------------------------------------------------------|

G|-------------------------------------------------------------------|
D|14--14----------14--14----------16--16-----------16--14--12-14-12--|
A|------------14--------------14--------------14---------------------|
E|-------------------------------------------------------------------|

G|----------------------------------------------------------------------------|
D|12--12--12----------------------------12--12--12----------------------------|
A|-----------12-------------------12h14------------12-------------------12h14-|
E|--------------10------10--12h14---------------------10------10--12h14-------|

G|------------------------------------------------------------------|
D|12--12--12------------------------12------------------\-----------|
A|-----------12------------/14--12----------------------------------|
E|--------------10------10------------------------------------------|
Suggest correction
Creating personal tab
Creating personal tab
You can edit any tab online and save it as your Personal.

You can edit, replace or remove any tab part or add personal notes – all changes will be seen only by you.

Personal tabs can be accessed anytime from any device, even offline.
Learn more »
comments
print report bad tab
7 comments total. Showing first comments.
0 reply
cbliam99 10 Dec 04, 2015 02:54 PM

didn't like this contribution

0 reply
cbliam99 10 Dec 04, 2015 02:55 PM

Most things are wrong in this tab. It is not helpful. The chorus is in the wrong key. Please review

0 reply
peterdoherty 83 Jan 20, 2016 03:40 PM

lack of accuracy in the tab of the bass guitar, not the way its really played
gxgbhfg dhgfdfgh dfghdfgbdfgb dfbdfgbd f

guest
You may want to rate the tab now too:
select rating
Wanna post a correction for this tab? Suggest correction