Oops, an error
Loading. Please wait.

No Other Heart tab

version 1
version 1

Whole song

10,069 views 132 this week
3 commentsread comments
1 2 3 4 5
x 9
add to favorites
×
Save as Personal and add changes to this tab that will be seen only by you. Learn more ›
×
You can save this tab as Personal to edit and correct it or add notes. All changes will be seen only by you. Learn more »
launch autoscroll
font size
0
reset
how to read this tab
guitar tuner
edit
Autoscroll
slow
fast
+/-
esc
set tempo
stop
Hello out there! I just tabbed out this beautiful song
according to the live version fount at:

https://www.youtube.com/watch?v=z0vsIE5iqSE 

In the video, a capo is used on the fourth fret, if you don't have one close at hand,
don't worry, it'll work out anyways.
Have fun! God Bless!

Tuning is Standard.


[Intro]
 
E|---------------------------9--11b12-------------------------|
B|--------------------9-9-11------------9--9-----9h11------9\-|
G|--8b9--6r---6h8/10----------------------------------10------|
D|------------------------------------------------------------|
A|------------------------------------------------------------|
E|------------------------------------------------------------|

E|---------------------------9--11b12-------------------------|
B|--------------------9-9-11------------9--9-----9-11-9\------|
G|--8b9--6r---6h8/10------------------------------------------|
D|------------------------------------------------------------|
A|------------------------------------------------------------|
E|------------------------------------------------------------|


[Verse]

E|-9----9----9----9----9----9----9----9----11----11----11----11----11----11----11----|
B|-----------------------------------------------------------------------------------|
G|---10---10---10---10---10---10---10---10----11----11----11----11----11----11---11--|
D|-----------------------------------------------------------------------------------|
A|-----------------------------------------------------------------------------------|
E|-----------------------------------------------------------------------------------|


[Chorus]

E|-9----9----9----9----13----13----14----14----16----16----16----18-13----13----13--13-|
B|-------------------------------------------------------------------------------------|
G|---10---10---10---10----13----13----14----14----17----17----17-------13----13----13--|
D|-------------------------------------------------------------------------------------|
A|-------------------------------------------------------------------------------------|
E|-------------------------------------------------------------------------------------|

E|-11----11----11----11----13----13----13----13-9----9----9----9----9----9----9-|
B|------------------------------------------------------------------------------|
G|----11----11----11----11----13----13----13------10---10---10---10---10---10---|
D|------------------------------------------------------------------------------|
A|------------------------------------------------------------------------------|
E|------------------------------------------------------------------------------|



************************************

| h  Hammer-on
| r  Release
| b  Bend
| /  Slide up
| \  Slide down

************************************
Suggest correction
Creating personal tab
Creating personal tab
You can edit any tab online and save it as your Personal.

You can edit, replace or remove any tab part or add personal notes – all changes will be seen only by you.

Personal tabs can be accessed anytime from any device, even offline.
Learn more »
comments
print report bad tab
3 comments total.
+1 reply
antonioalopez 22 May 16, 2016 05:58 PM, edited at 09:59 pm

minor detail but... (9 on B string twice)E|---------------------------9--11b12-----------------------B|--------------------99-11------------9--9-----9h11------9\G|--8b9--6r---6h8/10----------------------------------10---- D|----------------------------------------------------------A|----------------------------------------------------------E|---------------------------------------------------------- The introgod blessgreat job 10/10 would play again ign

guest
You may want to rate the tab now too:
select rating
Wanna post a correction for this tab? Suggest correction