Oops, an error
Loading. Please wait.

No Other Heart Bass Tab

version 3
version 3

Whole song

  • This one is way more accurate if not completely co... Show more
  • Pretty dang correct if I do say so myself.
232 views 18 this week
1 commentread comment
1 2 3 4 5
3 more votes to show rating
add to favorites
launch autoscroll
font size
0
reset
guitar tuner
Autoscroll
slow
fast
+/-
esc
set tempo
stop
Help us to improve Ultimate-Guitar.com Take our survey!
×
Author
Difficulty
intermediate
About this tab version
Pretty dang correct if I do say so myself. Was this info helpful? Yes No
Tuning: 1/4 step down.


[Intro/Verse]

G|---------------------------------------------------------------------------| \
D|--12--12--12------------------------12--12--12-----------------------------|  \
A|-------------12---------------12h14------------12---------------12h14------|   \
E|----------------10---10--12h14--------------------10---10--12h14-----------|    \
                                                                                   \
                                                                                    x6
G|---------------------14--12--11------------------------14--12--11----------|     /
D|-------------12--14-------------12-------------12--14-------------12-------|    /
A|--12--12--14------------------------12--12--14-----------------------------|   /     
E|---------------------------------------------------------------------------|  /


[Chorus]

G|---------------------------------------------------------------------------|
D|----------------------------8--8---8-11--11---11-12--12---12---------------|
A|--10--10----10--10--10---10------------------------------------9-10-11-12--|
E|---------------------------------------------------------------------------|

G|----------------------------------------------------------------------------------------|
D|--------------12--12--------14--14--------14--14--------16--16--------16--14--12-14-12--|
A|--14--14---14--------14--14--------14--14--------14--14--------14--14-------------------|
E|----------------------------------------------------------------------------------------|


[Verse 2]

G|---------------------------------------------------------------------------| \
D|--12--12--12------------------------12--12--12-----------------------------|  \
A|-------------12---------------12h14------------12---------------12h14------|  / x2
E|----------------10---10--12h14--------------------10---10--12h14-----------| /


G|---------------------------------------------------------------------------| \
D|--12--12--12------------------------12--12--12-----------------------------|  \
A|-------------12---------------12h14------------12---------------12h14------|   \
E|----------------10---10--12h14--------------------10---10--12h14-----------|    \
                                                                                   \
                                                                                    x4
G|---------------------14--12--11------------------------14--12--11----------|     /
D|-------------12--14-------------12-------------12--14-------------12-------|    /
A|--12--12--14------------------------12--12--14-----------------------------|   /    
E|---------------------------------------------------------------------------|  /


[Chorus]

G|---------------------------------------------------------------------------|
D|----------------------------8--8---8-11--11---11-12--12---12---------------|
A|--10--10----10--10--10---10------------------------------------9-10-11-12--|
E|---------------------------------------------------------------------------|

G|----------------------------------------------------------------------------------------|
D|--------------12--12--------14--14--------14--14--------16--16--------16--14--12-14-12--|
A|--14--14---14--------14--14--------14--14--------14--14--------14--14-------------------|
E|----------------------------------------------------------------------------------------|


G|---------------------------------------------------------------------------| \
D|--12--12--12------------------------12--12--12-----------------------------|  \
A|-------------12---------------12h14------------12---------------12h14------|  / x2
E|----------------10---10--12h14--------------------10---10--12h14-----------| /


[Chorus]

G|---------------------------------------------------------------------------|
D|----------------------------8--8---8-11--11---11-12--12---12---------------|
A|--10--10----10--10--10---10------------------------------------9-10-11-12--|
E|---------------------------------------------------------------------------|

G|----------------------------------------------------------------------------------------|
D|--------------12--12--------14--14--------14--14--------16--16--------16--14--12-14-12--|
A|--14--14---14--------14--14--------14--14--------14--14--------14--14-------------------|
E|----------------------------------------------------------------------------------------|


[Outro]

G|---------------------------------------------------------------------------| \
D|--12--12--12------------------------12--12--12-----------------------------|  \
A|-------------12---------------12h14------------12---------------12h14------|  / x2
E|----------------10---10--12h14--------------------10---10--12h14-----------| /

G|---------------------------------------------------------------------------|  
D|--12--12--12----------------------12---------------------------------------|  
A|-------------12----------12s14-12------------------------------------------|  
E|----------------10---10----------------------------------------------------|



************************************

| x  Dead note
| h  Hammer-on
| \  Slide down
| s  Slide

************************************
Suggest correction
Give kudos to tab author, rate the tab!
1 2 3 4 5
comments
print report bad tab
1 comment total.
0 reply
lukeyorn 10 Sep 20, 2016 08:39 PM

this is the exact same as the second version just in the same position as the first

guest
You may want to rate the tab now too:
select rating
Wanna post a correction for this tab? Suggest correction