Oops, an error
Loading. Please wait.

Onion Man tab

811 views 1 this week
2 commentsread comments
1 2 3 4 5
x 4
add to favorites
×
Save as Personal and add changes to this tab that will be seen only by you. Learn more ›
×
You can save this tab as Personal to edit and correct it or add notes. All changes will be seen only by you. Learn more »
launch autoscroll
font size
0
reset
how to read this tab
guitar tuner
edit
Autoscroll
slow
fast
+/-
esc
set tempo
stop
Author
Difficulty
Hey guys, this is my first tab so I hope you like it!

UPDATE: I figured out the chords for the song: 

Verse: F#, Ab and Abm.

Chorus: F#, Abm, Bbm and Abm.

This is the lead guitar, and also I added one of the verse's synth line


       e|-------4-6--------2-4--------1-2--------1|
       B|-----4--------2-4----------2----------2--|
Verse: G|-5-6--------3----------2-3--------1-3----|   (this is the synth part)
       D|-----------------------------------------|
       A|-----------------------------------------|
       E|-----------------------------------------|

       e|---------------------------------------------------------|
       B|---------------------------------------------------------|
       G|--5/6--6/8--8/11--11/18~-4-3--5/6--6/8--8/11--11\8--11\6~| x2   (actual guitar part)
       D|---------------------------------------------------------|
       A|---------------------------------------------------------|
       E|---------------------------------------------------------|


        e|----------14----------14----------14-14/16----------14---------|
        B|-------14----------14----------14----------------14----14/16---|
Chorus  G|-14-15-------14-15-------14-15-------------14-15---------------|
        D|---------------------------------------------------------------| x2
        A|---------------------------------------------------------------|
        E|---------------------------------------------------------------|

        e|-------11/13-11-13-13/14-9/11-11-11-11\9-13-11-13-13/14-9/11/-----|
        B|-12/14------------------------------------------------------------|
        G|------------------------------------------------------------------|
        D|------------------------------------------------------------------| 
        A|------------------------------------------------------------------|
        E|------------------------------------------------------------------|



***********************************
| \   slidedown
| /   slideup
| ~   vibrato
***********************************



That's pretty much it, listen to the 2nd time the chorus plays to catch some tiny differences :)


Suggest correction
Creating personal tab
Creating personal tab
You can edit any tab online and save it as your Personal.

You can edit, replace or remove any tab part or add personal notes – all changes will be seen only by you.

Personal tabs can be accessed anytime from any device, even offline.
Learn more »
comments
print report bad tab
2 comments total.
0 reply
codecs12345561 87 Mar 22, 2016 10:15 AM

gotta give this a 5

0 reply
joshuafranklin 10 Dec 09, 2016 12:02 AM

great tab man!

guest
You may want to rate the tab now too:
select rating
Wanna post a correction for this tab? Suggest correction