Oops, an error
Loading. Please wait.

Rock And Roll Night Club Tab

version 2
version 2

Whole song

  • Completed Solo and Corrected Chorus.
181 views 6 this week
no commentswrite comment
1 2 3 4 5
2 more votes to show rating
add to favorites
launch autoscroll
font size
0
reset
how to read this tab
guitar tuner
Autoscroll
slow
fast
+/-
esc
set tempo
stop
Help us to improve Ultimate-Guitar.com Take our survey!
×
Author
Difficulty
novice
About this tab version
Completed Solo and Corrected Chorus. Was this info helpful? Yes No
-------------------------------------------------------------------------------
                           ROCK AND ROLL NIGHT CLUB - MAC DEMARCO
-------------------------------------------------------------------------------
Tabbed by: Noah Moody
E-mail: Noahmoody1228@gmail.com

Tuning: STANDARD


INTRO
E|---------------------|---------------------|---------------------|---------------------|
B|---------------------|---------------------|-6-8-----------------|---------------------|
G|-5-7-----------------|---5-----------------|---------------------|---------------------|x2
D|---------------------|-7-------------------|---------------------|---------------------|
A|---------------------|---------------------|---------------------|---------------------|
E|---------------------|---------------------|---------------------|---------------------|

VERSE
E|-------------------------------------------------|
B|---6---6---6---6---6---6---6---6---6-------------|
G|-8---8---8---8---8---8---8---8---8---8-7-5-7---5-|x4
D|---------------------------------------------7---|
A|-------------------------------------------------|
E|-------------------------------------------------|

CHORUS
E|------------------------------------------------------------|
B|---------------------6-6---6---------------------6-8-8/10-6-|
G|------5-5h7---5--5/7-----7--------5-5h7---5--5/7------------|x2
D|-5/7--------7-----------------5/7-------7-------------------|
A|------------------------------------------------------------|
E|------------------------------------------------------------|

VERSE
E|-------------------------------------------------|
B|---6---6---6---6---6---6---6---6---6-------------|
G|-8---8---8---8---8---8---8---8---8---8-7-5-7---5-|x4
D|---------------------------------------------7---|
A|-------------------------------------------------|
E|-------------------------------------------------|

CHORUS
E|------------------------------------------------------------|
B|---------------------6-6---6---------------------6-8-8/10-6-|
G|------5-5h7---5--5/7-----7--------5-5h7---5--5/7------------|x2
D|-5/7--------7-----------------5/7-------7-------------------|
A|------------------------------------------------------------|
E|------------------------------------------------------------|

SOLO
E|---------------------------5---5---5----8----8----8-------------------------|
B|---6---6---6---8---8---8-6---6---6---10---10---10-----6---6---6---8---8---8-|
G|-7---7---7---7---7---7------------------------------7---7---7---7---7---7---|
D|----------------------------------------------------------------------------|
A|----------------------------------------------------------------------------|
E|----------------------------------------------------------------------------|

E|---------------------------------------------------5---5---5----8----8----8-|
B|---------------------------6---6---6---8---8---8-6---6---6---10---10---10---|
G|---5---5---5---7---7---7-7---7---7---7---7---7------------------------------|
D|-7---7---7---7---7---7------------------------------------------------------|
A|----------------------------------------------------------------------------|
E|----------------------------------------------------------------------------|

E|-------------------------------------------------------------------------|
B|---6---6---6---8---8---8-------------------------------------------------|
G|-7---7---7---7---7---7---7-7-5-5-----------------------------------------|
D|---------------------------------8-8-7-7-5-5-----5-5-7-7-----------------|
A|---------------------------------------------8-8---------8-8-8-8-8-8-8-8-|
E|-------------------------------------------------------------------------|

CHORUS
E|------------------------------------------------------------|
B|---------------------6-6---6---------------------6-8-8/10-6-|
G|------5-5h7---5--5/7-----7--------5-5h7---5--5/7------------|x4
D|-5/7--------7-----------------5/7-------7-------------------|
A|------------------------------------------------------------|
E|------------------------------------------------------------|

************************************
| h   Hammer-on
| /   Slide up
************************************
Suggest correction
Give kudos to tab author, rate the tab!
1 2 3 4 5
comments
print report bad tab
guest
You may want to rate the tab now too:
select rating
Wanna post a correction for this tab? Suggest correction