Oops, an error
Loading. Please wait.

Rolling Like A Dummy Tab

version 2
version 2

Whole song

  • Just the lead guitar part, based on the newer stud... Show more
70 views 1 this week
no commentswrite comment
1 2 3 4 5
3 more votes to show rating
add to favorites
launch autoscroll
font size
0
reset
how to read this tab
guitar tuner
Autoscroll
slow
fast
+/-
esc
set tempo
stop
Help us to improve Ultimate-Guitar.com Take our survey!
×
Author
Difficulty
Capo
intermediate
2nd fret
About this tab version
Just the lead guitar part, based on the newer studio version of this song. The previous tab was based on the live 2012 performance, and has the chords (which should be the same for both versions). Was this info helpful? Yes No
[Lead Intro]

e|--1-------3---------2-----0h2p0----0----|--1-------3---------2-----0h2p0----0--|
B|--0---3/5----5------1-----------1----1--|--0---3/5----5------1-----------1-----|
G|--0-------------0---2--2---------2------|--0-------------0---2--2---------2----|
D|----------------------------------------|--------------------------------------|
A|----------------------------------------|--------------------------------------|
E|----------------------------------------|--------------------------------------|

e|--1-------3---------2-----0h2p0----0----|--1-------3---------2--0--------------|
B|--0---3/5----5------1-----------1----1--|--0---3/5----5------1-----3--1--0-----|
G|--0-------------0---2--2---------2------|--0-------------0---2--------------2--|
D|----------------------------------------|--------------------------------------|
A|----------------------------------------|--------------------------------------|
E|----------------------------------------|--------------------------------------|

[Lead Verse]

Marky went and had a baby...

e|--1-------3---------2-----0h2p0----0----|--1-------3---------2-----0h2p0----0---|
B|--0---3/5----5------1-----------1----1--|--0---3/5----5------1-----------1----1-|
G|--0-------------0---2--2---------2------|--0-------------0---2--2---------2-----|
D|----------------------------------------|---------------------------------------|
A|----------------------------------------|---------------------------------------|
E|----------------------------------------|---------------------------------------|

e|--1-------3---------2-----0h2p0----0----|
B|--0---3/5----5------1-----------1----0--|
G|--0-------------0---2--2---------2------|
D|----------------------------------------|
A|----------------------------------------|
E|----------------------------------------|

That I just slipped right by it all...

e|----0-------------0-----------0------------------------------------|
B|-1-----1-------3-----------1-------1-----------------0----------0--|
G|-----------/4-----------2-------------0--2--------2----------2-----|
D|-----------------------------------------------4---------4---------| 
A|-------------------------------------------------------------------|
E|-------------------------------------------------------------------|

And being friendly isn't funny...

e|--1-------3---------2-----0h2p0----0----|--1-------3---------2-----0h2p0----0---|
B|--0---3/5----5------1-----------1----1--|--0---3/5----5------1-----------1----1-|
G|--0-------------0---2--2---------2------|--0-------------0---2--2---------2-----|
D|----------------------------------------|---------------------------------------|
A|----------------------------------------|---------------------------------------|
E|----------------------------------------|---------------------------------------|

e|--1-------3---------2-----0h2p0----0----|
B|--0---3/5----5------1-----------1----0--|
G|--0-------------0---2--2---------2------|
D|----------------------------------------|
A|----------------------------------------|
E|----------------------------------------|

Surprised that I slipped right on by it all...

e|----0-------------0-----------0------------------------------------|
B|-1-----1-------3-----------1-------1-----------------0----------0--|
G|-----------/4-----------2-------------0--2--------2----------3-----|
D|-----------------------------------------------4---------4---------| 
A|-------------------------------------------------------------------|
E|-------------------------------------------------------------------|

[Lead Chorus}
                    
If they were looking at me...

                                                       ∨ ∧   ∨ ∧   ∨ ∧   ∨ ∧
e|-3-------3----------0-------------3----------------------------------------------|
B|-3---5------3-------3---3---5--3-----5------5-------/7-7---5-5---3-3---1-1/3-----|
G|-4--------------4---4----------------5--------------/7-7---5-5---4-4---2-2/4-----| x4
D|----------------------------------------5-----5----------------------------------|
A|---------------------------------------------------------------------------------|
E|---------------------------------------------------------------------------------|


[Repeat Lead Verse]


[Lead Chorus - Finale]

                                                       ∨ ∧   ∨ ∧   ∨ ∧   ∨ ∧
e|-3-------3----------0-------------3----------------------------------------------|
B|-3---5------3-------3---3---5--3-----5------5-------/7-7---5-5---3-3---1-1/3-----|
G|-4--------------4---4----------------5--------------/7-7---5-5---4-4---2-2/4-----| x3
D|----------------------------------------5-----5----------------------------------|
A|---------------------------------------------------------------------------------|
E|---------------------------------------------------------------------------------|


                                                       ∨ ∧   ∨ ∧   ∨ ∧   ∨ ∧
e|-3-------3----------0-------------3--------------------------------------------3---|
B|-3---5------3-------3---3---5--3-----5------5-------/7-7---5-5---3-3---1-1/3---3---|
G|-4--------------4---4----------------5--------------/7-7---5-5---4-4---2-2/4---4---| x1
D|----------------------------------------5-----5------------------------------------|
A|-----------------------------------------------------------------------------------|
E|-----------------------------------------------------------------------------------|


***********************************
| /   Slide up
| h   Hammer-on
| p   Pull-off

***********************************


Suggest correction
Give kudos to tab author, rate the tab!
1 2 3 4 5
comments
print report bad tab
guest
You may want to rate the tab now too:
select rating
Wanna post a correction for this tab? Suggest correction