Oops, an error
Loading. Please wait.

Sherrill Tab

12,083 views 27 this week
no commentswrite comment
1 2 3 4 5
excellent!
x 11
add to favorites
launch autoscroll
font size
0
reset
how to read this tab
guitar tuner
Autoscroll
slow
fast
+/-
esc
set tempo
stop
Help us to improve Ultimate-Guitar.com Take our survey!
×
Author
Difficulty
                              Mac DeMarco - Sherrill
                              from his 2012 album '2'

Intro:
Guitar 1:
e|----6--6----------7----7--9--|
B|----------9---7/9---9--------|
G|-6---------------------------| x8
D|-----------------------------|
A|-----------------------------|
E|-----------------------------|

Weird synthy thing:
This is pretty hard to work out
because it has a bunch of effects on it,
but I think I got the basic progression down:
e|---------------------------------|
B|-14----12--11----9--7------------|
G|-13----11--10----8--6----8--6----| x2
D|-11-----9---8----6--4----8--6----|
A|-------------------------6--4----|
E|---------------------------------|

Verse:
"Gettin' hard to remember,
gettin' hard to recall,
gettin' laid off and pushed out,
and it ain't my baby's fault, so if you..."
Guitar 1:
e|----7--------11----11-14------9-----11----------------|
B|------7---------12----------------------12-----12-----|
G|-/8------/11--------------/8-----11--------11-----11--| x4
D|------------------------------------------------------|
A|------------------------------------------------------|
E|------------------------------------------------------|

Guitar 2:
e|-------7-----------7-----------5-----------7-----|
B|-------7-----------9-----------5-----------9-----|
G|-------8-----------9-----------6-----------9-----| x4
D|-------9-----------9-----------7-----------9-----|
A|-------9-----7--7--7--7--------7-----7--7--7--7--|
E|-7--7--7--7--------------5--5--5--5--------------|

Pre-chorus:
"...go, don't cry"
Guitar 1:
e|----11-------11------11-----9----9--7/9--7----7----|
B|------------------11-----11---11-----------7----7--|
G|-11------11----------------------------------------|
D|---------------------------------------------------|
A|---------------------------------------------------|
E|---------------------------------------------------|

Guitar 2:
e|-6-6--6-6--6-6--6-6---9--9---9--9--7-7--7-7--|
B|-7-7--7-7--7-7--7-7--11-11--11-11--7-7--7-7--|
G|-8-8--8-8--8-8--8-8--11-11--11-11--8-8--8-8--|
D|-8-8--8-8--8-8--8-8--11-11--11-11--9-9--9-9--|
A|-6-6--6-6--6-6--6-6---9--9---9--9--9-9--9-9--|
E|-----------------------------------7-7--7-7--|

"I'll be right there, at your side"
Guitar 1:
e|----16-------16------16-14--16b17--16b17--17-17--17-17--|
B|--------------------------------------------------------|
G|-16------16-------16------------------------------------|
D|--------------------------------------------------------|
A|--------------------------------------------------------|
E|--------------------------------------------------------|

Guitar 2:
e|-4-4--4-4--4-4--4-4--5-5--5-5--5-5--5-5--|
B|-4-4--4-4--4-4--4-4--5-5--5-5--5-5--5-5--|
G|-4-4--4-4--4-4--4-4--6-6--6-6--6-6--6-6--|
D|-6-6--6-6--6-6--6-6--7-7--7-7--7-7--7-7--|
A|-6-6--6-6--6-6--6-6--7-7--7-7--7-7--7-7--|
E|-4-4--4-4--4-4--4-4--5-5--5-5--5-5--5-5--|

Chorus:
"Sherrill,
Sherrill"
Guitar 1:
e|----6--6----------7----7--9--|
B|----------9---7/9---9--------|
G|-6---------------------------| x4
D|-----------------------------|
A|-----------------------------|
E|-----------------------------|

Weird synthy thing:
This is pretty hard to work out
because it has a bunch of effects on it,
but I think I got the basic progression down:
e|---------------------------------|
B|-14----12--11----9--7------------|
G|-13----11--10----8--6----8--6----|
D|-11-----9---8----6--4----8--6----|
A|-------------------------6--4----|
E|---------------------------------|

Verse:
"Gettin' laid on the lifeline,
gettin' tired, time for bed,
and there's no use gettin' worked up,
I'll remember all you said, and if you.."
Guitar 1:
e|----7--------11----11-14------9-----11----------------|
B|------7---------12----------------------12-----12-----|
G|-/8------/11--------------/8-----11--------11-----11--| x4
D|------------------------------------------------------|
A|------------------------------------------------------|
E|------------------------------------------------------|

Guitar 2:
e|-------7-----------7-----------5-----------7-----|
B|-------7-----------9-----------5-----------9-----|
G|-------8-----------9-----------6-----------9-----| x4
D|-------9-----------9-----------7-----------9-----|
A|-------9-----7--7--7--7--------7-----7--7--7--7--|
E|-7--7--7--7--------------5--5--5--5--------------|

Pre-chorus:
"...go, don't cry"
Guitar 1:
e|----11-------11------11-----9----9--7/9--7----7----|
B|------------------11-----11---11-----------7----7--|
G|-11------11----------------------------------------|
D|---------------------------------------------------|
A|---------------------------------------------------|
E|---------------------------------------------------|

Guitar 2:
e|-6-6--6-6--6-6--6-6---9--9---9--9--7-7--7-7--|
B|-7-7--7-7--7-7--7-7--11-11--11-11--7-7--7-7--|
G|-8-8--8-8--8-8--8-8--11-11--11-11--8-8--8-8--|
D|-8-8--8-8--8-8--8-8--11-11--11-11--9-9--9-9--|
A|-6-6--6-6--6-6--6-6---9--9---9--9--9-9--9-9--|
E|-----------------------------------7-7--7-7--|

"I'll be right there, at your side"
Guitar 1:
e|----16-------16------16-14--16b17--16b17--17-17--17-17--|
B|--------------------------------------------------------|
G|-16------16-------16------------------------------------|
D|--------------------------------------------------------|
A|--------------------------------------------------------|
E|--------------------------------------------------------|

Guitar 2:
e|-4-4--4-4--4-4--4-4--5-5--5-5--5-5--5-5--|
B|-4-4--4-4--4-4--4-4--5-5--5-5--5-5--5-5--|
G|-4-4--4-4--4-4--4-4--6-6--6-6--6-6--6-6--|
D|-6-6--6-6--6-6--6-6--7-7--7-7--7-7--7-7--|
A|-6-6--6-6--6-6--6-6--7-7--7-7--7-7--7-7--|
E|-4-4--4-4--4-4--4-4--5-5--5-5--5-5--5-5--|

Chorus:
"Sherrill,
Sherrill,
Sherrill,
Sherrill"
Guitar 1:
e|----6--6----------7----7--9--|
B|----------9---7/9---9--------|
G|-6---------------------------| x8
D|-----------------------------|
A|-----------------------------|
E|-----------------------------|

Weird synthy thing:
This is pretty hard to work out
because it has a bunch of effects on it,
but I think I got the basic progression down:
e|---------------------------------|
B|-14----12--11----9--7------------|
G|-13----11--10----8--6----8--6----| x2
D|-11-----9---8----6--4----8--6----|
A|-------------------------6--4----|
E|---------------------------------|

End on:
Guitar 1:
e|-11----|
B|-11----|
G|--8----|
D|-------|
A|-------|
E|-------|


************************************

| /   slide up
| \   slide down
| h   hammer-on
| p   pull-off
| ~   vibrato
| +   harmonic
| x   Mute note
| b   Bend
| pb  Pre-bend
| br  Bend release
| pbr Pre-bend release
| brb Bend release bend

************************************
Suggest correction
comments
print report bad tab
guest
You may want to rate the tab now too:
select rating
Please do not post tabs as comments. Select "correction" instead!