Oops, an error
Loading. Please wait.

Shes Really All I Need Tab

version 1
version 1

Live

Whole song

70 views 3 this week
no commentswrite comment
1 2 3 4 5
3 more votes to show rating
add to favorites
launch autoscroll
font size
0
reset
how to read this tab
guitar tuner
Autoscroll
slow
fast
+/-
esc
set tempo
stop
Help us to improve Ultimate-Guitar.com Take our survey!
×
Author
Difficulty
novice
She's Really All I Need Live
Taken from https://www.youtube.com/watch?v=mmEFqn44hwY
You can get the chords here https://tabs.ultimate-guitar.com/m/mac_demarco/shes_really_all_i_need_crd.htm
Note: He plays with a capo on the second fret. This tab is not relative to the capo.

Verse

e|---6---4---2---------------------------------------------------|
B|-7---5---4-----------------------------------------------------|
G|---------------------------------------------------------------|
D|---------------------------------------------------------------|
A|---------------------------------------------------------------|
E|---------------------------------------------------------------|

e|----11-------------11------------------------------------------|
B|-12------9-7----14------9-7------------------------------------|
G|---------------------------------------------------------------|
D|---------------------------------------------------------------|
A|---------------------------------------------------------------|
E|---------------------------------------------------------------|

Played four times

Chorus

e|---2---4-2----2---4-2---------------------2-----2--------------|
B|-5---5------5---5-----4---------4---4---4-----4----------------|
G|------------------------------6---6---6-----6------------------|
D|---------------------------------------------------------------|
A|---------------------------------------------------------------|
E|---------------------------------------------------------------|

Played twice
Suggest correction
Give kudos to tab author, rate the tab!
1 2 3 4 5
comments
print report bad tab
guest
You may want to rate the tab now too:
select rating
Wanna post a correction for this tab? Suggest correction