Oops, an error
Loading. Please wait.

Special K Bass Tab

61 views 6 this week
1 commentread comment
1 2 3 4 5
2 more votes to show rating
add to favorites
launch autoscroll
font size
0
reset
guitar tuner
Autoscroll
slow
fast
+/-
esc
set tempo
stop
Help us to improve Ultimate-Guitar.com Take our survey!
×
Author
Difficulty
novice
About this tab version
This is not actually the bass line but rather the melody line written for bass. Was this info helpful? Yes No
This is the melody line which is normally played by a synth but then written for bass.
I would suspect that this would sounds great on a fretless but I haven't tried...
Listen to the song for the rhythm as the slides vary in length

[Part 1] x2

G|7/9~----7-9-7~-------7/9-9--9/12-12--12/14-14--9-9----7~----9\7~------------|
D|------------------7-----------------------------------------------10\7~--5-7|
A|----------------------------------------------------------------------------|
E|----------------------------------------------------------------------------|

[Part 2] x2

G|-----7-7~----7/9-9--9/12-12--12/14----14/17-17----17\7~----9\7~------------|
D|7-10-------------------------------------------------------------10\7~--5-7|
A|---------------------------------------------------------------------------|
E|---------------------------------------------------------------------------|

For the very last part, add this to the end

G|---------------------|
D|----5-7----5-7----5-7|
A|--------------------0|
E|---------------------|

************************************

| /   Slide up
| \   Slide down
| ~   Vibrato

************************************
Suggest correction
Give kudos to tab author, rate the tab!
1 2 3 4 5
comments
print report bad tab
1 comment total.
0 reply
siirikatarina1 10 Nov 23, 2016 09:35 AM

Wow! this tab is very easy to play!! Good JOB, keep making tabs these are good

guest
You may want to rate the tab now too:
select rating
Wanna post a correction for this tab? Suggest correction