Oops, an error
Loading. Please wait.

Still Beating tab

version 1
version 1

Whole song

  • Lead Guitar Part // Easier Fingerings for verse an... Show more
19,630 views 642 this week
8 commentsread comments
1 2 3 4 5
x 13
add to favorites
×
Save as Personal and add changes to this tab that will be seen only by you. Learn more ›
×
You can save this tab as Personal to edit and correct it or add notes. All changes will be seen only by you. Learn more »
launch autoscroll
font size
0
reset
how to read this tab
guitar tuner
edit
Autoscroll
slow
fast
+/-
esc
set tempo
stop
IF YOU WANT TO PLAY ALONG WITH THE SONG TUNE A QUATER STEP UP!

[Chords used throughout the song 

e|--2---0---0--------|
B|--0---2---0--------|
G|--2---2---0--------|
D|--0---2---2--------|
A|------0---2--------|
E|----------0--------|


[Intro]
e|-----------------------------------------------------------------------------------|
B|-----9-----11---------14--12--11\--------------------------------------------------|
G|----8------8---------8----11--11\---------11-11--11-11/15--------------------------|
D|8/11---8/11------8/11-----12--11\----8/11------------------------11-11--8-11-8-----|
A|-------------------------------------------------------------8/11----------------11|
E|-----------------------------------------------------------------------------------|

e|-----------------------------------------------------------------------------------|
B|-----9-----11---------14--12--11\--------------------------------------------------|
G|----8------8---------8----11--11\---------11-11--11-11/15--------------------------|
D|8/11---8/11------8/11-----12--11\----8/11-----------------------11-11--8-11-14--14\|
A|------------------------------------------------------------8/11-------------------|
E|-----------------------------------------------------------------------------------|

[Verse 1]
e|-----------------------------------------------------------------------------------|
B|-----9-----11---------14--12--11\--------------------------------------------------|
G|----8------8---------8----11--11\--------------------------------------------------| x2
D|8/11---8/11------8/11-----12--11\--------------------------------------------------|
A|-----------------------------------------------------------------------------------|
E|-----------------------------------------------------------------------------------|

[Chorus]
e|-----------------------------------------------------------------------------------|
B|-----9-----11---------14--12--11\--------------------------------------------------|
G|----8------8---------8----11--11\---------11-11--11-11/15--------------------------| 
D|8/11---8/11------8/11-----12--11\----8/11------------------------11-11--8-11-8-----|
A|-------------------------------------------------------------8/11----------------11|
E|-----------------------------------------------------------------------------------|

e|-----------------------------------------------------------------------------------|
B|-----9-----11----------------------------------------------------------------------|
G|----8------8-----13----10/11-10-11---10--------8---6-------------------------------| 
D|8/11---8/11------------------------------------------------------------------------|
A|-----------------------------------------------------------------------------------|
E|-----------------------------------------------------------------------------------|

[Bridge]
e|-----------------------------------------------------------------------------------|
B|-----9-----11---------14--12--11\--------------------------------------------------|
G|----8------8---------8----11--11\---------11-11--11-11/15--------------------------|
D|8/11---8/11------8/11-----12--11\----8/11------------------------11-11--8-11-8-----|
A|-------------------------------------------------------------8/11----------------11|
E|-----------------------------------------------------------------------------------|

e|-----------------------------------------------------------------------------------|
B|-----9-----11---------14--12--11\--------------------------------------------------|
G|----8------8---------8----11--11\---------11-11--11-11/15--------------------------|
D|8/11---8/11------8/11-----12--11\----8/11-----------------------11-11--8-11-11--14\|
A|------------------------------------------------------------8/11-------------------|
E|-----------------------------------------------------------------------------------|

[Verse 2]
e|-----------------------------------------------------------------------------------|
B|-----9-----11---------14--12--11\--------------------------------------------------|
G|----8------8---------8----11--11\--------------------------------------------------| x2
D|8/11---8/11------8/11-----12--11\--------------------------------------------------|
A|-----------------------------------------------------------------------------------|
E|-----------------------------------------------------------------------------------|

[Chorus]
e|-----------------------------------------------------------------------------------|
B|-----9-----11---------14--12--11\--------------------------------------------------|
G|----8------8---------8----11--11\---------11-11--11-11/15--------------------------| 
D|8/11---8/11------8/11-----12--11\----8/11------------------------11-11--8-11-8-----|
A|-------------------------------------------------------------8/11----------------11|
E|-----------------------------------------------------------------------------------|

e|-----------------------------------------------------------------------------------|
B|-----9-----11----------------------------------------------------------------------|
G|----8------8-----13----------------------------------------------------------------| 
D|8/11---8/11------------------------------------------------------------------------|
A|-----------------------------------------------------------------------------------|
E|-----------------------------------------------------------------------------------|

************************************

| \  Slide down
| /  Slide up

************************************

            
            
Suggest correction
Creating personal tab
Creating personal tab
You can edit any tab online and save it as your Personal.

You can edit, replace or remove any tab part or add personal notes – all changes will be seen only by you.

Personal tabs can be accessed anytime from any device, even offline.
Learn more »
comments
print report bad tab
8 comments total. Showing first comments.
+2 reply
not_oliver 41 Apr 16, 2017 02:28 PM

Hey if you want to add the chords to this wonderful tab, I believe it is capo 4

e|--2---0---0--------|
B|--0---2---0--------|
G|--2---2---0--------|
D|--0---2---2--------|
A|------0---2--------|
E|----------0--------|

+2 reply
Happy Billy 10 May 06, 2017 11:16 PM

Yo is it tabbed relative to the capo or no?

+1 reply
joe_mckeown 12 May 08, 2017 05:45 AM, edited at 09:48 am

Chords are just D, A, EM, G if you watch his performance on Crack Magazine with a hammer on on the b string second freight with the A and EM chords

guest
You may want to rate the tab now too:
select rating
Wanna post a correction for this tab? Suggest correction