Oops, an error
Loading. Please wait.

Still Together solo tab

4,715 views 36 this week
2 commentsread comments
1 2 3 4 5
x 6
add to favorites
×
Save as Personal and add changes to this tab that will be seen only by you. Learn more ›
×
You can save this tab as Personal to edit and correct it or add notes. All changes will be seen only by you. Learn more »
launch autoscroll
font size
0
reset
how to read this tab
guitar tuner
edit
Autoscroll
slow
fast
+/-
esc
set tempo
stop
Author
Difficulty
Mac Demarco - Still Together (solo)

The album version doesn't include this solo, but every live performance has one.
It is always different (but with a similar beginning).
Mac will typically crowd surf while the solo is played.

This tab is based on this specific version:
http://www.youtube.com/watch?v=7ISMQAPJLdE (starts at 2:58)

If you only want to listen to the solo, check this chopped version
http://www.tubechop.com/watch/5985303

I've listened almost every solo version, and this one is the most fun (for me)



Tuning: Standard (EADGBe)
Capo at 2 (but the numbers used are not relative to capo, in fact for the solo you don't need it)

 e ----------|---------|---------|---------------9---
 B ----------|---------|---------|-------------------
 G ----------|---------|---------|-------------6-----
 D ----8-6-6-|-4-4-3-3-|---4---3-|---4---------------
 A --6-------|---------|-6---6---|-6---4-4-----------
 E ----------|---------|---------|-------------------
 
 e ----------|------------|------------------------------------------------------------
 B ----------|------------|------------------------------------------------------------
 G ----------|----------6-|------------------------------------------------------------
 D ----8-6-6-|--6-6-6h8---|-6-8-----6---------------------------------------------4-6--
 A --6-------|------------|-----9-----8-9---6-8-----6-------------------------4-6------
 E ----------|------------|---------------------9-----8-9---6-8-4---6-3-4-6------------
 
 e ---------------------------------------------------------------------------------------9-|-9--9-11-
 B -------------------------------------------------7---7---9-9b11-11p9p7---7--------9/11---|--11-----
 G ------6---6---8~---8p6---6-----6---6-8-8-----6-8---8-------------------8-----------------|---------
 D --6/8---8--------------8-----8---8-------------------------------------------------------|---------
 A -----------------------------------------------------------------------------------------|---------
 E -----------------------------------------------------------------------------------------|---------
                                                              ^bend 9 to 11.
                                                               while bended, pluck it and pulloff from there
 
 e ----14-14-14-11--16b-16b-14-16-13-14-11-13------
 B --------------------------------------------9---
 G ------------------------------------------------
 D ------------------------------------------------
 A ------------------------------------------------
 E ------------------------------------------------

 e -------9-9----9----------------------------------------------------------
 B --9h11-----11---11-9-----------------------------------------------------
 G ---------------------11-----------11-13-11-13-13b15--15p11----11-13-11---
 D ----------------------------11h13--------------------------13------------
 A -------------------------------------------------------------------------
 E -------------------------------------------------------------------------
                                                  ^bend 13 to 15.
                                                   while bended, pluck it and pulloff from there

 
 e ------------------------------------15--15h16-16b-16b-16b-16b-16b--------
 B ------------------------------14-16--------------------------------------
 G ---------11-13-13-11---13/15---------------------------------------------
 D --11/13------------------------------------------------------------------
 A -------------------------------------------------------------------------
 E -------------------------------------------------------------------------
 
 e ---16p14----14-------14-16--13-14-11-13-9--------9-11-9--------
 B ---------16-------16------------------------9-11--------11-9~--
 G ---------------------------------------------------------------
 D ---------------------------------------------------------------
 A ---------------------------------------------------------------
 E ---------------------------------------------------------------

 e -----------------------------------------------------
 B ---9-7-9-6-----6-7-6-7------------------------9---9--
 G ------------------------------6---6------------------
 D --------------------------6-8---8---8-6-----6---6----
 A -----------------------------------------------------
 E -----------------------------------------------------

 e --------9-9----11~----11b-11b--
 B ---9h11-----11-----------------
 G -------------------------------
 D -------------------------------
 A -------------------------------
 E -------------------------------

            
            
Suggest correction
Creating personal tab
Creating personal tab
You can edit any tab online and save it as your Personal.

You can edit, replace or remove any tab part or add personal notes – all changes will be seen only by you.

Personal tabs can be accessed anytime from any device, even offline.
Learn more »
comments
print report bad tab
2 comments total.
0 reply
aidan_long1 10 Sep 05, 2015 10:44 AM, edited at 02:45 pm

This is great tab! Thank you so much for being the first person to tab out this solo. I was wondering if you had a complete version of the solo though?

guest
You may want to rate the tab now too:
select rating
Wanna post a correction for this tab? Suggest correction