Oops, an error
Loading. Please wait.

The Way Youd Love Her Tab

version 1
version 1

Intro

  • Although this version is meant to be played using ... Show more

Whole song

Interactive

235 views 12 this week
no commentswrite comment
1 2 3 4 5
3 more votes to show rating
add to favorites
launch autoscroll
font size
0
reset
how to read this tab
guitar tuner
×
Best way to learn
"The Way Youd Love Her"
Autoscroll
slow
fast
+/-
esc
set tempo
stop
Author
Difficulty
Capo
  follow
intermediate
4th fret
About this tab version
Although this version is meant to be played using two different guitars, playing either part alone will still sound fine. It's recommend that you learning both parts on capo 4. (This is also my first tab, enjoy). Was this info helpful? Yes No
[Guitar 1: Verse]    (4x)

e|--------------------------------------|-------------------------------------|
B|--------------------------------------|-------------------------------------|
G|----------4-----------6-----------6---|9p8h9-----------8-----------8--------|
D|---4/6---------5/7---------5/7--------|---------7/9---------7/9-------------|
A|--------------------------------------|-------------------------------------|
E|--------------------------------------|-------------------------------------|

e|--------------------------------------|-------------------------------------|
B|--------------------------------------|-------------------------------------|
G|---9p8h9------------9-------------11--|-9p8h9-------------9-----------------|
D|------------9/11---------11/13--------|----------11/13----------------------|
A|--------------------------------------|-------------------------------------|
E|--------------------------------------|-------------------------------------|


[Guitar 2: Verse]    (4x)

e|----------0-0---------0-0---------2-2-|----------------2-2---------4-4------|
B|----------0-0---------2-2---------2-2-|----------------4-4---------4-4------|
G|----------1-1---------2-2---------2-2-|----------------2-2---------4-4------|
D|----------2-2---------2-2---------2-2-|----------------4-4---------4-4------|
A|----------2-2---------0-0---------4-4-|----------------2-2---------6-6------|
E|----------0-0---------0-0---------2-2-|----------------2-2---------4-4------|

e|--------------------4-4-----------2-2-|-------------------0-0---------------|
B|--------------------5-5-----------2-2-|-------------------2-2---------------|
G|--------------------4-4-----------2-2-|-------------------0-0---------------|
D|--------------------6-6-----------2-2-|-------------------2-2---------------|
A|--------------------4-4-----------4-4-|-------------------0-0---------------|
E|--------------------4-4-----------2-2-|-------------------0-0---------------|





[Guitar 1: Chorus]    (4x)

e|--------------------------------------|-------------------------------------|
B|-------0-------0-------0-------0------|-0-------0-------0-------------------|
G|-------------------4-------2-------1--|-----1-------------------------------|
D|---6-------6--------------------------|-------------2-------2---2/6---------|
A|--------------------------------------|-------------------------------------|
E|--------------------------------------|-------------------------------------|


[Guitar 2: Chorus]    (4x)

e|-----------------------0-----------2--|-4p2---------0-------0---------------|
B|-----------------------------------1--|---------2---0-------0---------------|
G|-------4-----------4---------------2--|-----1-------1-------1---------------|
D|---6-------------------------------0--|-------------2-------2---------------|
A|-----------------------------------0--|-------------2-------2---------------|
E|-----------------------------------0--|-------------0-------0---------------|


***********************************
| /   Slide up
| h   Hummer-on
| p   Pull-off
***********************************
Suggest correction
Give kudos to tab author, rate the tab!
1 2 3 4 5
comments
print report bad tab
guest
You may want to rate the tab now too:
select rating
Wanna post a correction for this tab? Suggest correction