Oops, an error
Loading. Please wait.
We have an official The Way Youd Love Her tab made by UG professional guitarists. Check out the tab »
×
10,088 views 42 this week
no commentswrite comment
1 2 3 4 5
x 21
add to favorites
×
Save as Personal and add changes to this tab that will be seen only by you. Learn more ›
×
You can save this tab as Personal to edit and correct it or add notes. All changes will be seen only by you. Learn more »
launch autoscroll
font size
0
reset
how to read this tab
guitar tuner
edit
Autoscroll
slow
fast
+/-
esc
set tempo
stop
Mac DeMarco - The Way You'd Love Her
Track 1 from "Another One" (Captured Tracks 2015).

Tabbed by Isaac Murguia, September 2015.
Originally uploaded to Ultimate-Guitar.com
Contact: www.youtube.com/user/Goadiroth

CAPO on 4th Fret.
Tabbed relative to capo except where noted.
Lead Guitar only. :D

INTRO/VERSE: [x4]
e|---------------------------------------|
B|---------------------------------------|
G|-----4~~------6~~------6--8brb-----8~~-|
D|-4/6------5/7------4/7---------7/9-----|
A|---------------------------------------|
E|---------------------------------------|

e|----------------------------------------------|
B|----------------------------------------------|
G|-----8--8brb-------9~~--------11--8brb----9~~-|
D|-7/9----------9/11------11/13----------11-----|
A|----------------------------------------------|
E|----------------------------------------------|

CHORUS:
e|-----------------------------------|
B|----0---0----0---0---0---0---0---0-|
G|-----------4---2---1---1-----------|
D|-/6---6--------------------2---2---|
A|-----------------------------------|
E|-----------------------------------| [x3]

e|---------------------------------|
B|----0---0----0---0---0---0--0~~--|
G|-----------4---2---1---1----1~~--|
D|-/6---6---------------------2~~--|
A|----------------------------0~~--|
E|---------------------------------|

Repeat VERSE [x2]
Repeat CHORUS

SOLO A: (not relative to capo)
e|---------------------------13-12b--12br----------|
B|------------------------13--------------13----13-|
G|-15b--15br-13----13-15b--------------------15----|
D|--------------15---------------------------------|
A|-------------------------------------------------|
E|-------------------------------------------------|

e|------------------------16-18---19b-19b-19br----16-|
B|-------16-16-----16-18-----------------------18----|
G|-15h17--------17-----------------------------------|
D|---------------------------------------------------|
A|---------------------------------------------------|
E|---------------------------------------------------|

SOLO B: (not relative to capo)
e|---------------------------13-12b--12br----------|
B|------------------------13--------------13----13-|
G|-15b--15br-13----13-15b--------------------15----|
D|--------------15---------------------------------|
A|-------------------------------------------------|
E|-------------------------------------------------|

e|------------------------16-18-|-14--14-13----------13--13-------------|
B|-------16-16-----16-18--------|------------16-14----------16--14------|
G|-15h17--------17--------------|----------------------------------15\--|
D|------------------------------|---------------------------------------|
A|------------------------------|---------------------------------------|
E|------------------------------|---------------------------------------|

ENDING:
e|-----------------------------------|
B|----0---0----0---0---0---0---0---0-|
G|-----------4---2---1---1-----------|
D|-/6---6--------------------2---2---|
A|-----------------------------------|
E|-----------------------------------| [x3]

e|--------------------------------------|
B|----0---0----0---0---0---0---0---0~~--|
G|-----------4---2---1---1---------1~~--|
D|-/6---6--------------------2-----2~~--|
A|---------------------------------0~~--|
E|--------------------------------------|

End. Please rate! :D

            
            
Suggest correction
Creating personal tab
Creating personal tab
You can edit any tab online and save it as your Personal.

You can edit, replace or remove any tab part or add personal notes – all changes will be seen only by you.

Personal tabs can be accessed anytime from any device, even offline.
Learn more »
comments
print report bad tab
guest
You may want to rate the tab now too:
select rating
Wanna post a correction for this tab? Suggest correction