Oops, an error
Loading. Please wait.

This Old Dog chords

version 2
version 2

Whole song

  • Most accurate chords with tabbed strumming pattern.
  • Taken directly from Mac's performance of 'This Old... Show more
  • Improvements upon the chords in version 3.
19,705 views 519 this week
3 commentsread comments
1 2 3 4 5
x 27
add to favorites
×
Save as Personal and add changes to this tab that will be seen only by you. Learn more ›
×
You can save this tab as Personal to edit and correct it or add notes. All changes will be seen only by you. Learn more »
launch autoscroll
font size
0
reset
transpose
0
reset
simplify chords
display chords
guitar tuner
edit
Autoscroll
slow
fast
+/-
esc
set tempo
stop
About this tab version
Most accurate chords with tabbed strumming pattern. Was this info helpful? Yes No
Strumming
There is no strumming pattern for this song yet. and get +5 IQ
Mac DeMarco: This Old Dog


Capo on 3rd fret

Chord Shapes 

F       :1-3-3-2-1-1
Fmaj7   :1-3-3-2-1-0
G9      :3-x-3-2-0-x  
G6      :3-x-2-4-3-x
D9      :x-5-4-5-5-0
C9      :x-3-2-3-3-0

This basically the strumming pattern for the verses but listen to the song for minor changes in strum.

   Fmaj7               G9  *         G6          F            
e|--0----------0--|-------(0)--|-------------|-----------1--|-----------1--|
B|--1-------1--1--|--------0---|------0--3---|--------1--1--|--------1--1--|
G|--2-------2--2--|------2-2---|------4--4---|---2----2--2--|---2----2--2--|
D|--3---3---3-----|------3-3---|------2--2---|---3----3-----|---3----3-----|
A|--3---3---------|------------|-------------|---3--3-------|---3--3-------|
E|----------------|--3-3-------|--3-3--------|---1--1-------|---1--1-------|
                                            
                                        *(0) Only really played the first time 

This is also the strumming pattern for the chorus. 
 
   D9                  G6         C9             F               
e|--0----------0--|------------|----------0--|-----------1--|-----------1--|
B|--5-------5--5--|----- 0-3---|--3----3--3--|--------1--1--|--------1--1--|
G|--5-------5--5--|------4-4---|--3--3-3--3--|---2----2--2--|---2----2--2--|
D|--4---4---4-----|------2-2---|--2--2-2-----|---3----3-----|---3----3-----|
A|--5---5---------|--x-x-------|--3--3-------|---3--3-------|---3--3-------|
E|----------------|--3-3-------|-------------|---1--1-------|---1--1-------|
                                            


[Verse 1]

Fmaj7         G9        G6       F
Sometimes my love may be put on hold
Fmaj7         G9         G6         F
Sometimes my heart may se em awful cold
Fmaj7         G9        G6         F
These times come and these times go
Fmaj7         G9        G6          F
As long as I live, all you need to know is

[Chorus]

D9        G6        C9         F
This old dog ain't about to forget
D9        G6        C9         F
All we've had, and all that's next
D9        G6          C9         F
'Long as my heart's beating in my chest
D9        G6       C9         F
This old dog ain't about to forget

[Verse 2]

Fmaj7     G9            G6         F
Often a heart tends to change its mind
Fmaj7         G9        G6         F
A new day decides on a new design
Fmaj7         G9        G6         F
A new day gets set on another way
Fmaj7         G9        G6         F
As long as I live, all I've got to say is

[Chorus]

D9        G6        C9         F
This old dog ain't about to forget
D9        G6        C9         F
All we've had, and all that's next
D9        G6          C9         F
'Long as my heart's beating in my chest
D9        G6       C9         F
This old dog ain't about to forget


Tabbed by Trystan H
Suggest correction
Creating personal tab
Creating personal tab
You can edit any tab online and save it as your Personal.

You can edit, replace or remove any tab part or add personal notes – all changes will be seen only by you.

Personal tabs can be accessed anytime from any device, even offline.
Learn more »
comments
print report bad tab
3 comments total.
+1 reply
nate.bsq 10 Feb 02, 2017 05:11 PM

Thanks mate ! Let's wait for some acoustic videos with Mac to see how he's playing it !

0 reply
junglegeorge22 10 Feb 03, 2017 04:42 PM

mac is a fookin wizard

0 reply
tophermunz 101 Feb 23, 2017 08:09 PM

Spaht ahn boi

guest
You may want to rate the tab now too:
select rating
Wanna post a correction for this tab? Suggest correction