Oops, an error
Loading. Please wait.

This Old Dog tab

version 2
version 2

Whole song

  • The spine of the song is here, all the rest is Nei... Show more
  • It is simpler and uses different chords. Here is a... Show more
1,183 views 15 this week
no commentswrite comment
1 2 3 4 5
3 more votes to show rating
add to favorites
×
Save as Personal and add changes to this tab that will be seen only by you. Learn more ›
×
You can save this tab as Personal to edit and correct it or add notes. All changes will be seen only by you. Learn more »
launch autoscroll
font size
0
reset
how to read this tab
guitar tuner
edit
Autoscroll
slow
fast
+/-
esc
set tempo
stop
"This Old Dog" -Mac DeMarco
Tuning: Standard
Capo: 3rd fret
This is a more basic version that should be easier to read.  If you want to sound like Mac you gotta add 
some finesse and different fingerings and such.  Enjoy!

[Verse]
e|-------0------0-----------(0)-------------------------1-----------1---|
B|------1-------1------------0---------0--3-----------1-----------1-1---|
G|-----2------2------------2-----------2-(2)--------2-----------2-------|   X4
D|----3-------3----------3-----------3----------(3)---------(3)---------|   
A|---3-----------------x-----------x------------(3)---------(3)---------|
E|--1-------1----------3-----------3-------------1-----------1----------|

[Chorus]
e|-------x-----------------(0)----------(0)------------1---------1------|
B|------5------5------------0------------3-----------1---------1-1------|
G|-----5-------5----------2------------3-----------2---------2----------|   X4
D|----4------4----------3---------2--2---------(3)--------(3)-----------|
A|---5-----5----------x-----------3------------(3)--------(3)-----------|
E|--x-----------------3-------------------------1----------1------------|

Lyrics:
[Verse 1]
Sometimes my love may be put on hold
Sometimes my heart may seem awful cold
These times come and these times go
As long as I live, all you need to know is

[Chorus]
This old dog ain't about to forget
All we've had
And all that's next
'Long as my heart's beating in my chest
This old dog ain't about to forget

[Verse 2]
Often a heart tends to change its mind
A new day decides on a new design
A new day gets set on another way
As long as I live, all I've got to say is

[Chorus]
This old dog ain't about to forget
All we've had
And all that's next
'Long as my heart's beating in my chest
This old dog ain't about to forget




            
            
Suggest correction
Creating personal tab
Creating personal tab
You can edit any tab online and save it as your Personal.

You can edit, replace or remove any tab part or add personal notes – all changes will be seen only by you.

Personal tabs can be accessed anytime from any device, even offline.
Learn more »
Give kudos to tab author, rate the tab!
1 2 3 4 5
comments
print report bad tab
guest
You may want to rate the tab now too:
select rating
Wanna post a correction for this tab? Suggest correction