Oops, an error
Loading. Please wait.

This Old Dog Acoustic tab

version 3
version 3

Whole song

  • The spine of the song is here, all the rest is Nei... Show more
  • It is simpler and uses different chords. Here is a... Show more
2,020 views 48 this week
no commentswrite comment
1 2 3 4 5
x 6
add to favorites
×
Save as Personal and add changes to this tab that will be seen only by you. Learn more ›
×
You can save this tab as Personal to edit and correct it or add notes. All changes will be seen only by you. Learn more »
launch autoscroll
font size
0
reset
how to read this tab
guitar tuner
edit
Autoscroll
slow
fast
+/-
esc
set tempo
stop
Notes:
1. This is based on this video of Mac playing it live: 
https://www.youtube.com/watch?v=vwHDZ6cXZys&index=1&list=LLnVq9GgZ2_G4uUe3DMVHhPw
2. Put the frequency of your tuner on 432Hz and tune your guitar to get closer to the sound Mac gets. 
If you can´t change the frequency for some reason, Im pretty sure the 
standard tuning (on 440Hz) will do just fine.
3. The strumming patterns are quite easy to figure out if you listen to the video.

Capo on 3rd

[Intro}

E|-------0-|----------|------------|--1------| 
B|-1--1----|--------0-|----------3-|--1------|
G|-2-------|------2---|-------4----|--2------|   (x2)
D|-3-------|---0------|---0--------|--3------|
A|-3-------|---2------|---2--------|--3------|
E|---------|---3------|---3--------|---------|

[Verse]

E|-0---|--------|--------|----1------| 
B|-1---|--------|----3---|----1------|
G|-2---|--------|----0---|----2------| (x4)
D|-3---|----0---|----0---|----3------| 
A|-3---|----2---|----2---|----3------|
E|-----|----3---|----3---|-----------|

[Chorus]

E|-0---|-------|----0---|----1------| 
B|-5---|---3---|----3---|----1------|
G|-5---|---4---|----3---|----2------| (x4)
D|-4---|---2---|----2---|----3------|
A|-5---|---0---|----3---|----3------|
E|-----|---3---|--------|-----------|

Lyrics:

Sometimes my love may be put on hold
Sometimes my heart may seem awful cold
These times come and these times go
As long as I live, all you need to know is

This old dog ain't about to forget
All we've had
And all that's next
'Long as my heart's beating in my chest
This old dog ain't about to forget

Often a heart tends to change its mind
A new day decides on a new design
A new day gets set on another way
As long as I live, all I've got to say is

This old dog ain't about to forget
All we've had
And all that's next
'Long as my heart's beating in my chest
This old dog ain't about to forget





            
            
Suggest correction
Creating personal tab
Creating personal tab
You can edit any tab online and save it as your Personal.

You can edit, replace or remove any tab part or add personal notes – all changes will be seen only by you.

Personal tabs can be accessed anytime from any device, even offline.
Learn more »
comments
print report bad tab
guest
You may want to rate the tab now too:
select rating
Wanna post a correction for this tab? Suggest correction