Oops, an error
Loading. Please wait.

Another Night Tab

79,949 views 60 this week
no commentswrite comment
1 2 3 4 5
x 12
add to favorites
launch autoscroll
font size
0
reset
how to read this tab
guitar tuner
Autoscroll
slow
fast
+/-
esc
set tempo
stop
Help us to improve Ultimate-Guitar.com Take our survey!
×
Author
Difficulty
intermediate
-------------------------------------------------------------------------------
                             ANOTHER NIGHT - Mac Miller
-------------------------------------------------------------------------------
Tabbed by: EricConnor6
Email:ebby032@yahoo.com
Play through the whole thing the first time, then just play the first line for the 
rest of the song. Pretty cool song to play once you get it.

Tuning: Standard

e|------8----8--x-8---x---8--x-8---x----9--x-9---x---4--x--4--x------------|
B|------9----9--x-9---x---8--x-8---x----9--x-9---x---4--x--4--x------------|
G|------8h10-8--x-8---x---8--x-8---x----10-x-10--x---5--x--5--x------------|
D|------10---10-x-10--x---8--x-8---x----11-x-11--x---6--x--6--x------------|
A|----8-8----8--x-8---x---10-x-10--x----11-x-11--x---6--x--6--x------------|
E|--------------x-----x-8-8--x-8---x--9-9--x-9---x-4-4--x--4--x------------|

e|------8----8--x-8---x---8--x-8---x----9--x-9---x--4----------------------|
B|------9----9--x-9---x---8--x-8---x----9--x-9---x--4----------------------|
G|------8h10-8--x-8---x---8--x-8---x----10-x-10--x--5-hold-----------------|
D|------10---10-x-10--x---8--x-8---x----11-x-11--x--6----------------------|
A|----8-8----8--x-8---x---10-x-10--x----11-x-11--x--6----------------------|
E|--------------x-----x-8-8--x-8---x--9-9--x-9---x--4----------------------|



************************************

| x  Dead note
| h  Hammer-on

************************************
Suggest correction
comments
print report bad tab
guest
You may want to rate the tab now too:
select rating
Wanna post a correction for this tab? Suggest correction