Oops, an error
Loading. Please wait.

Cinderella intro tab

1,060 views 18 this week
no commentswrite comment
1 2 3 4 5
x 4
add to favorites
×
Save as Personal and add changes to this tab that will be seen only by you. Learn more ›
×
You can save this tab as Personal to edit and correct it or add notes. All changes will be seen only by you. Learn more »
launch autoscroll
font size
0
reset
how to read this tab
guitar tuner
edit
Autoscroll
slow
fast
+/-
esc
set tempo
stop
About this tab version
No corrections according to the suggestions. Was this info helpful? Yes No
e|-0---0-----------|
B|---0---0-4-0-2---|
G|---------------2-|
D|-----------------|
A|-----------------|
E|-----------------|

        Uh,      Sign


e|-0---0-----------|
B|---0---0-4-0-2---|
G|---------------2-|
D|-----------------|
A|-----------------|
E|-----------------|

...


e|-0---0-----------|
B|---0---0-4-0-2---|
G|---------------2-|
D|-----------------|
A|-----------------|
E|-----------------|

Nananananananananaaaa


e|-0---0-----------|
B|---0---0-4-0-2---|
G|---------------2-|
D|-----------------|
A|-----------------|
E|-----------------|

...


e|-0---0-----------|
B|---0---0-4-0-2---|
G|---------------2-|
D|-----------------|
A|-----------------|
E|-----------------|

I've been waiting all night for this moment


e|-0---0-----------|
B|---0---0-4-0-2---|
G|---------------2-|
D|-----------------|
A|-----------------|
E|-----------------|

I've been waiting all year for this moment


e|-0---0-----------|
B|---0---0-4-0-2---|
G|---------------2-|
D|-----------------|
A|-----------------|
E|-----------------|

I've been picturing you taking off your clothes for me


e|-0---0-----------|
B|---0---0-4-0-2---|
G|---------------2-|
D|-----------------|
A|-----------------|
E|-----------------|

I've been literally curving all these hoes for you


e|-0---0-----------|
B|---0---0-4-0-2---|
G|---------------2-|
D|-----------------|
A|-----------------|
E|-----------------|


Daddy told you better bring yo ass home


e|-0---0-----------|
B|---0---0-4-0-2---|
G|---------------2-|
D|-----------------|
A|-----------------|
E|-----------------|

Cinderella better bring yo ass home


e|-0---0-----------|
B|---0---0-4-0-2---|
G|---------------2-|
D|-----------------|
A|-----------------|
E|-----------------|

Man I swear the parents just don't understand


e|-0---0-----------|
B|---0---0-4-0-2---|
G|---------------2-|
D|-----------------|
A|-----------------|
E|-----------------|

You ain't gotta be old to be a man

            
            
Suggest correction
Creating personal tab
Creating personal tab
You can edit any tab online and save it as your Personal.

You can edit, replace or remove any tab part or add personal notes – all changes will be seen only by you.

Personal tabs can be accessed anytime from any device, even offline.
Learn more »
comments
print report bad tab
guest
You may want to rate the tab now too:
select rating
Wanna post a correction for this tab? Suggest correction