Oops, an error
Loading. Please wait.

Knock Knock Tab

version 1
version 1

Whole song

13,075 views 30 this week
2 commentsread comments
1 2 3 4 5
x 6
add to favorites
launch autoscroll
font size
0
reset
how to read this tab
guitar tuner
×
Best way to learn
"Knock Knock"
Autoscroll
slow
fast
+/-
esc
set tempo
stop
--------------------------------------------------------|
----7------7---5---7---8---7---5---------5--------------|
7-----4----------------------------7--6-----------------|
--------------------------------------------------------|
--------------------------------------------------------|

(This is for the whole song!)
Suggest correction
comments
print report bad tab
2 comments total.
0 reply
dunkeykung 10 Aug 09, 2013 06:16 PM

E--------------------------------------------------------------------
B------7---------7---5----7-8--5-------------------------------------
G---7-----4------------------------7-6--4--6-------------------------
D--------------------------------------------------------------------
A--------------------------------------------------------------------
E--------------------------------------------------------------------

0 reply
dunkeykung 10 Aug 09, 2013 06:16 PM

E--------------------------------------------------------------------
B------7---------7---5----7-8--5-------------------------------------
G---7-----4------------------------7-6--4--6-------------------------
D--------------------------------------------------------------------
A--------------------------------------------------------------------
E--------------------------------------------------------------------

guest
You may want to rate the tab now too:
select rating
Wanna post a correction for this tab? Suggest correction