Oops, an error
Loading. Please wait.

The Question Live tab

1,199 views 1 this week
1 commentread comment
1 2 3 4 5
1 last vote to show rating
add to favorites
×
Save as Personal and add changes to this tab that will be seen only by you. Learn more ›
×
You can save this tab as Personal to edit and correct it or add notes. All changes will be seen only by you. Learn more »
launch autoscroll
font size
0
reset
how to read this tab
guitar tuner
edit
Autoscroll
slow
fast
+/-
esc
set tempo
stop
Author
Mac Miller mostly plays The Question live with a little guitar riff. During shows he improvises a lot on the
lick. But I tabbed this show (https://www.youtube.com/watch?v=pyTuAJkrFDM), where the more basic version is
played.


Tuning: Standard


Intro: Guitar riff
e|---------------------------------------------------------------------------|
B|---------------------------------------------------------------------------|
G|--------------------------------3~-----------------------------------------|
D|--3-5--5/7--5-3---------3---3-5----5~-----3-5--5/7-5-3------------3-5-3----|
A|5---------------5~--3-5---5-------------5--------------5~-3~---3-5-------5-|
E|---------------------------------------------------------------------------|

e|-------------------------------------6-8-8b10b8-6~-------------------------|
B|----------------------------6~---6-8---------------------------------------|
G|--------3---3-5---3-5/7-5-3------------------------------------------------|
D|----3-5---5-----5------------------------------------3-5--5/7-5-3----------|
A|3-5------------------------------------------------5--------------5~--3~---|
E|---------------------------------------------------------------------------|

e|---------------------------------------------------------------------------|
B|---------------------------------------------------------------------------|
G|---------------------------------------------------------------------------|
D|----3-5-5b7b5-3~-----------------------------------------------------------|
A|3-5------------------------------------------------------------------------|
E|---------------------------------------------------------------------------|

Verse and Hook: chords
e|-3-3---5-----------------------3-3---6-------------------------------------|
B|-3-3---6-----------------------4-4---6-------------------------------------|
G|-4-4---5-----------------------3-3---6-------------------------------------|
D|-5-5---7-----------------------5-5---8-------------------------------------|
A|-5-5---5-----------------------3-3---6-------------------------------------|
E|-3-3---5-----------------------3-3---7-------------------------------------|
(is repeated during the verse and hook)

Riff 

Verse and Hook: chords

Outro: Riff






************************************

| /   slide up
| \   slide down
| h   hammer-on
| p   pull-off
| ~   vibrato
| +   harmonic
| x   Mute note
| b   Bend
| pb  Pre-bend
| br  Bend release
| pbr Pre-bend release
| brb Bend release bend

************************************

            
            
Suggest correction
Creating personal tab
Creating personal tab
You can edit any tab online and save it as your Personal.

You can edit, replace or remove any tab part or add personal notes – all changes will be seen only by you.

Personal tabs can be accessed anytime from any device, even offline.
Learn more »
Give kudos to tab author, rate the tab!
1 2 3 4 5
comments
print report bad tab
1 comment total.
0 reply
bbob22483 15 Sep 06, 2015 09:23 AM

Lack of accuracy. Clearly wrong. It's nice for the most part but it is clearly wrong in some points. If it was just a tad more accurate i'd rate higher but if it's wrong it's wrong aint it

guest
You may want to rate the tab now too:
select rating
Wanna post a correction for this tab? Suggest correction