Oops, an error
Loading. Please wait.

Espera De Amor Tab

90 views 1 this week
no commentswrite comment
1 2 3 4 5
3 more votes to show rating
add to favorites
launch autoscroll
font size
0
reset
how to read this tab
guitar tuner
×
Best way to learn
"Espera De Amor"
Autoscroll
slow
fast
+/-
esc
set tempo
stop
Hola saludando a toda la gente que le gusta la musica ,me llamo
hector martinez y dejando el intro de este hermoso tema .
bueno ya que nadie transcribio el intro de este tema que
a muchos nos hace pensar .. bueno se las dejo aver que tal
les parece ..bendiciones a todos

INTRO:

1)-5h7-7h5-----------5----  --5h7-7h5---------------
2)---------7-5---5-7---7.-  ----------7-5---5-7-----
3)-------------7----------  --------------7------4^-
4)------------------------  ------------------------
5)------------------------  ------------------------
6)------------------------  ------------------------

1)-7/10/7--7h5-----------4h5--   -5h7-7h5---------------
2)-------------7-5---5-7------   ---------7-5---5-7-----
3)-----------------7----------   -------------7-----4^--
4)----------------------------   -----------------------
5)----------------------------   -----------------------
6)----------------------------   -----------------------

1)-------3-2-0-----------------  ---------------------
2)-3-2-0-------3-0-------------  ---------------------
3)-----------------2^----------  ----------------2-4--(2veces)
4)-----------------------------  --2h4-4-2h4-4-4------
5)-----------------------------  ---------------------
6)-----------------------------  ---------------------


Hasta cuando seré capaz de soñar
       [ch]Bm[/ch]                   [ch]G[/ch]
hasta cuando seré capaz de esperar
       [ch]D           [ch]A[/ch]         SIm[/ch]
reviviendo los recuerdos que ella dejó
                                   [ch]G[/ch]
aquel ingrato amor que se burló
[ch]D             [ch]A[/ch]          SIm[/ch]

La soledad se sienta frente a mí
       [ch]G     [ch]D    LA[/ch]      SIm[/ch]
ella me dice que pronto tú vendrás mi amor
       [ch]G       [ch]D           LA[/ch]       SIm[/ch]

Mi corazón desfallece recordando a la mujer
       [ch]G      [ch]D         LA[/ch]           SIm[/ch]
que un día prometió que me amaría hasta morir
       [ch]G      [ch]D            LA[/ch]          SIm[/ch]

Hasta cuando mi corazón llorará
       [ch]Bm[/ch]                  [ch]G[/ch]
que de a poco esta muriendo de amor
         [ch]D           [ch]A[/ch]        SIm[/ch]
va gritando por las calles de dolor
                               [ch]G[/ch]
y al fruto de su amor quiere besar
     [ch]D           [ch]A[/ch]          SIm[/ch]

La soledad se sienta frente a mí
       [ch]G     [ch]D     LA[/ch]     SIm[/ch]
ella me dice que pronto tú vendrás mi amor
       [ch]G       [ch]D            LA[/ch]      SIm[/ch]

Mi corazón desfallece esperando a la mujer
       [ch]G       [ch]D       LA[/ch]           SIm[/ch]
que un día prometió que me amaría hasta morir
       [ch]G      [ch]D            LA[/ch]          SIm[/ch]


todos juntos:

Tú volverás se que vendrás
[ch]D[/ch]
porque el destino nos unió
[ch]G[/ch]          [ch]F#m[/ch] [ch]E[/ch]    [ch]D[/ch]
yo esperaré seré felíz
            [ch]E[/ch]     [ch]D[/ch]
junto al fruto de nuestro amor (bis)
               [ch]F#        SIm[/ch]

SALUDOS PARA TODA LA GENTE NASQUEÑA .. PARA MI TIO JOSE VELASQUEZ
EXELENTE GUITARRISTA , Y MI TIO CRISTIAN MARTINEZ EXELENTE VOZ DEL HUAYNO
LATINOAMERICANA ...

YA SABEN CUALQUIER DATO : EL_TRAVIESOLOVE@HOTMAIL......
Suggest correction
Give kudos to tab author, rate the tab!
1 2 3 4 5
comments
print report bad tab
guest
You may want to rate the tab now too:
select rating
Wanna post a correction for this tab? Suggest correction