Oops, an error
Loading. Please wait.

Isabel Tab

version 2
version 2

Whole song

90 views 3 this week
no commentswrite comment
1 2 3 4 5
3 more votes to show rating
add to favorites
launch autoscroll
font size
0
reset
how to read this tab
guitar tuner
×
Best way to learn
"Isabel"
Autoscroll
slow
fast
+/-
esc
set tempo
stop
Algunos arreglos a las transcripciones anteriores, de una música muy bonita
espero que se oiga bien

ahí les va

INTRO:
[ch]Bm[/ch]
1)-10/7----7-7---7-7---7--10--10/12----10/7----7-7---7-7----9--7-----
2)------7------7-----7----------------------7------7-----7--------10-
3)------------------------------------------------------------------- (x2)
4)--9------9-9---9-9--------------------9------9-9---9-9------------- (***)
5)-------------------------------------------------------------------
6)-------------------------------------------------------------------

1)-------------------------------5-5/7-5-----777/10---555/7---2------
2)-------2-3---2-3-5-----5-7-5-7---------7---888------666-----3------
3)-4-2-4-----4-------6-7---------------------------------------------
4)-------------------------------------------------------------------
5)-------------------------------------------------------------------
6)-------------------------------------------------------------------

1)------------------------------------------------
2)------------------------------------------------
3)------------------------------------------------
4)----4-2---2---2-4--------4-2---2---2-4----------
5)--2-----5---5-----2----2-----5---5------2-------
6)------------------------------------------------


(PARTE I)
           [ch]Bm[/ch]                  [ch]A[/ch]
Yo ande por ti cual mendigo de amor
                                1)-------0---------0-----
                                2)-2---2---2-----2---2---
                                3)---2----------2------2-
                                4)-----------------------
                                5)-0---------0-----------
                                6)-----------------------

      [ch]Bm[/ch]            [ch]F#m[/ch]
y te busque en mi soledad
                     1)-222-222-222-222-222-222-222--
                     2)----------------2-------------
                     3)------------2-------2--------- (Tremolo)
                     4)--------4---------------4-----
                     5)----4-----------------------4-
                     6)------------------------------


      [ch]D               [ch]A[/ch]                  SIm[/ch]
para  vivir            si.........preso de ti
   1)-------2-----2 1)-------0-----0-     1)-------------------
   2)-3---3-----3-- 2)-2---2-----2---     2)-------------------
   3)---2-----2---- 3)---2-----2-----     3)------------------- (*)
   4)-0------------ 4)-0-------------     4)---4-2---2---2-4---
   5)-------------- 5)---------------     5)-2-----5---5-----2-
   6)-------------- 6)---------------     6)-------------------

           [ch]Bm[/ch]            [ch]A[/ch]
No pienso amor perderte jamás
                          1)-------0---------0-----
                          2)-2---2---2-----2---2---
                          3)---2----------2------2-
                          4)-----------------------
                          5)-0---------0-----------
                          6)-----------------------

     [ch]Bm[/ch]                [ch]F#m[/ch]
no dejes que me quede sin ti
                          1)-222-222-222-222-222-222-222--
                          2)----------------2-------------
                          3)------------2-------2---------
                          4)--------4---------------4-----
                          5)----4-----------------------4-
                          6)------------------------------

     [ch]D                     LA[/ch]
no volveré                  no.........
         1)-------2-----2 1)-------0-----0-
         2)-3---3-----3-- 2)-2---2-----2---
         3)---2-----2---- 3)---2-----2-----
         4)-0------------ 4)-0-------------
         5)-------------- 5)---------------
         6)-------------- 6)---------------

            [ch]Bm[/ch]
a vivir otra vez
              1)-------------------------
              2)-------------------------
              3)------------------------- (**)
              4)---4-2---2---2-4-4/9-9-9-
              5)-2-----5---5-------------
              6)-------------------------


CORO:


    [ch]D[/ch]
De tanto que te busque
   1)-------2-----2--
   2)-3---3-----3----
   3)---2-----2------  (x2)
   4)-0--------------
   5)----------------
   6)----------------

    [ch]D[/ch]
de tanto que te llore
   1)-------2-----2--
   2)-3---3-----3----
   3)---2-----2------  (x2)
   4)-0--------------
   5)----------------
   6)----------------


       [ch]Bm[/ch]
y te encontre
   1)----------------
   2)-----3-----3----
   3)---4---4-----4--  (x2)
   4)-4-------4------
   5)----------------
   6)----------------

   [ch]D[/ch]
viviendo en mi soledad
   1)-------2-----2--
   2)-3---3-----3----
   3)---2-----2------  (x2)
   4)-0--------------
   5)----------------
   6)----------------

   [ch]D[/ch]
bebiendo llanto de amor
   1)-------2-----2--
   2)-3---3-----3----
   3)---2-----2------  (x2)
   4)-0--------------
   5)----------------
   6)----------------

                 [ch]Bm[/ch]
por encontrarte a ti
                  1)----------------------
                  2)-------2-3-2-3-5-5/7--
                  3)-4-2-4----------------
                  4)----------------------
                  5)----------------------
                  6)----------------------

      [ch]G[/ch]                            [ch]D[/ch]
Me revele                       mi destino
      1)-------3-----3--           1)-------2-----2--
      2)-----3-----3----           2)-----3-----3----
      3)---4-----4------  (x2)     3)---2-----2------ (x2)
      4)-5--------------           4)-0--------------
      5)----------------           5)----------------
      6)----------------           6)----------------

      [ch]A[/ch]
buscandote
   1)-------0-----0--
   2)-----2-----2----
   3)---2-----2------  (x2)
   4)-2--------------
   5)----------------
   6)----------------


         [ch]Bm[/ch]
para ser felíz
         1)----------------------
         2)-------2-3-2-3-5-5/7--
         3)-4-2-4----------------
         4)----------------------
         5)----------------------
         6)----------------------


           [ch]G[/ch]                           [ch]D[/ch]
Hoy te encontre                   en mi camino
             1)-------3-----3--           1)-------2-----2--
             2)-----3-----3----           2)-----3-----3----
             3)---4-----4------  (x2)     3)---2-----2------ (x2)
             4)-5--------------           4)-0--------------
             5)----------------           5)----------------
             6)----------------           6)----------------

         [ch]A[/ch]
no puedo ya
         1)-------0-----0--
         2)-----2-----2----
         3)---2-----2------
         4)-2--------------
         5)----------------
         6)----------------

          [ch]Bm[/ch]
vivir sin ti... Fin


1)--------------------------------------------------------------
2)-----3-5/7-7-7------3-2------------3-4/5-5-5-------2-0--------
3)-2-4------------2-4-----4-2----2-4-------------2-4-----2/4-4--  (x2)
4)--------------------------------------------------------------
5)--------------------------------------------------------------
6)--------------------------------------------------------------

REPETIR (*) Y (**)

REPETIR (PARTE I)

Y PARA EL FINAL (***)


Gracias a Milton,
Saúl Pajares y "Shalo" Villanueva (comparable con
el Maestro Raúl García) cajamarquinos ellos... ya los oirán ;)
Saludos a Raul, Javier, Franz, Joel, José y toda la gente
brava de Nostalgia Nazqueña
Suggest correction
Give kudos to tab author, rate the tab!
1 2 3 4 5
comments
print report bad tab
guest
You may want to rate the tab now too:
select rating
Wanna post a correction for this tab? Suggest correction