Oops, an error
Loading. Please wait.

Isabel Tab

version 3
version 3

Whole song

92 views 1 this week
no commentswrite comment
1 2 3 4 5
3 more votes to show rating
add to favorites
launch autoscroll
font size
0
reset
how to read this tab
guitar tuner
×
Best way to learn
"Isabel"
Autoscroll
slow
fast
+/-
esc
set tempo
stop
AKI LES MANDO UNA TRANSC5RIPCION,
QUE ESPRO QUE LES GUSTE, ES LA PRIMERA QUE HAGO Y PIENSO MANDAR MAS,
CUALQUIER COSA ESCRIBANME A MI CORREO OK


INTRO
E|--9p7---7-7---7-7---7--10-10/12-|--9p7---7-7---7-7---9-7h9p7--------|
B|------7-----7-----7-------------|------7-----7-----7---------10-----|
G|--7---7-----7-----7-------------|--7---7-----7-----7----------------|


E|--9p7---7-7---7-7---7--10-10/12-|--9p7---7-7---7-7---9-7h9p7----(7)-|
B|------7-----7-----7-------------|------7-----7-----7---------10-----|
G|--7---7-----7-----7-------------|--7---7-----7-----7----------------|

E|----------------------|-------2-|---2-4-5h7-5---|-777h9-7p5---|
B|--------2-3-|---2-3-5-|-2-3-5---|-5-----------7-|-----------7-|
G|--4-3-4-----|-4-------|---------|---------------|-------------|

                         PM
E|----------------------|---------------------|
B|----------------------|---------------------|
G|----11-9-7-9-7-9-11---|---------------------|
D|--9-----------------9-|----4-2-0-2-0-2-4----|
A|----------------------|--2---------------2--|


           [ch]Bm[/ch]                  [ch]A[/ch]
Yo ande por ti cual mendigo de amor
      [ch]Bm[/ch]            [ch]F#m[/ch]
y te busque en mi soledad
       [ch]D  [ch]A[/ch]         SIm[/ch]
para vivir si preso de ti

No pienso amor perderte jamás
no dejes que me quede sin ti
no volveré no a vivir otra vez

    [ch]D[/ch]
De tanto que te busque
    [ch]D[/ch]
de tanto que te llore
       [ch]Bm[/ch]
y te encontre
   [ch]D[/ch]
viviendo en mi soledad
   [ch]D[/ch]
bebiendo llanto de amor
          [ch]Bm[/ch]
para ser felíz

      [ch]G[/ch]           [ch]D[/ch]
Me revele con mi destino
      [ch]A            SIm[/ch]
buscandote para ser felíz
           [ch]G[/ch]          [ch]D[/ch]
Hoy te encontre en mi camino
         [ch]A         SIm[/ch]
no puedo ya vivir sin ti.


AQUÍ ESTA LA FORMA COMO DEBEN ARPEGIARSE LOS ?RICOS ACORDES?
YA QUE NADIE PONE ESTO EN LAS DEMAS TRANSCRIPCIONES,
YO LO HICE

    A
E|------0-------------0------------
B|-----2--0h2p0-----2---0h2p0------
G|----2---------2-2-----------(2)--
D|---2-----------------------------
A|--0------------------------------

    G
E|--------5p3---3--|
B|------3-----3----|
G|----4------------|
D|-----------------|
A|-----------------|
E|--3--------------|

ESTOS SON LOS MAS IMPORTANTES, LOS DEMAS ESTAN BIEN.
AKI ABAJO ESTA E SOLO DE VIOLIN,
PERO EN GUITARRA TAMBIEN SALE CHEVERE

VIOLIN
               Bm                                  A
E|--------10-12/14-14-14--|--------10-9h10p9-----------|
B|-----12-----------------|-----12-----------12p10-10--|
G|--11--------------------|--11------------------------|

                                             Bm
E|-------9-10/12-12-12-|-------9-7h9p7-----------|
B|----10---------------|----10---------10/12-12--|
G|--9------------------|--9----------------------|

                         PM
E|----------------------|---------------------|
B|----------------------|---------------------|
G|----11-9-7-9-7-9-11---|---------------------|
D|--9-----------------9-|----4-2-0-2-0-2-4----|
A|----------------------|--2---------------2--|

BUENO SPERO QUE LES AGRADE, SOLO ESTOY MANDANDO LAS PARTES QUE LES
FALTA A LAS DEMAS,
SI QUIEREN LA VERSION COMPLETA TIENEN QUE HACER UNA FUCION JEJEJE.
ETA CANCION SE LA DEDIKO
A TODA LA GENTE ROMANTICONA QUE LE GUSTA ESTE TIPO DE MUSICA.
SALUDOS A TODA LA MANCHA DE LOS REMAGARIMPAMPUTIS.
KAMBIO Y FUERA
Suggest correction
Give kudos to tab author, rate the tab!
1 2 3 4 5
comments
print report bad tab
guest
You may want to rate the tab now too:
select rating
Wanna post a correction for this tab? Suggest correction