Oops, an error
Loading. Please wait.

Regresa Tab

35 views 3 this week
no commentswrite comment
1 2 3 4 5
3 more votes to show rating
add to favorites
launch autoscroll
font size
0
reset
how to read this tab
guitar tuner
×
Best way to learn
"Regresa"
Autoscroll
slow
fast
+/-
esc
set tempo
stop
HOLA COLEGAS MI NOMBRE ES HECTOR SOY DE PERU-LIMA
Y AQUI CONPRATIENDO LO QUE SE CON USTEDES ..
ESTE PUNTEO LO SAQUE A OIDO NO MAS HE , POR ESO KIERO
QUE USTEDES LO VEAN Y CALIFIQUEN PS , UN BESO PARA LA NIÑA
QUE ME ALEGRA LA VIDA LEYDI (ASH! QUE CHIKA). BUENO AHI LES VA!

INTRO:

1)---7---7---  ----5---5----  ----3---3------  ---1---1-----1--1-
2)--9-9-9-9.-  ---7-7-7-7.--  ---5-5-5-5.----  --3-3-3-3---------
3)-9---9-----  --7---7------  --5---5--------  -3---3-----3---3--
4)-----------  -------------  ---------------  ------------------
5)-----------  -------------  ---------------  ------------------
6)-----------  -------------  ---------------  ------------------

D              A           G            A
Decidistes alejarte de mi vida para siempre,
     Bm      A          G              A
pero yo te recuerdo como antes como siempre,
  D            A         G            A
fue cuando a mi lado me decias que me querias,
    D          A       G                A
me cai en un abismo al saber que me dejabas,
    Bm         A         G           A
fue así que prometí olvidarte para siempre,
 D        A        G                A       D
no nunca logre y te amo hoy mas que nunca amor...


  D              A         G               D
Estoy deseando tenerte y estoy muriendo por verte
     D     A   G           D
por que sin tí nada tiene sentido
   D    A  G     D
regresa amor    regresaa...

1)-9h11-9h11p9----------9h11-  --9h11-9h11p9------------
2)-------------11-9-11-------  --------------11-13-11-9-
3)---------------------------  -------------------------
4)---------------------------  -------------------------
5)---------------------------  -------------------------
6)---------------------------  ------------------------

1)-----------9h11-9.--14^-11-9-------------
2)-11^-9----------------------11-9---------
3)-------11------------------------10-7-8^-
4)-----------------------------------------
5)-----------------------------------------
6)-----------------------------------------


1)---7---7---  ----5---5----  ----3---3------  ---1---1-----1--1-
2)--9-9-9-9.-  ---7-7-7-7.--  ---5-5-5-5.----  --3-3-3-3---------
3)-9---9-----  --7---7------  --5---5--------  -3---3-----3---3--
4)-----------  -------------  ---------------  ------------------
5)-----------  -------------  ---------------  ------------------
6)-----------  -------------  ---------------  ------------------

     D          A            G        A
A pasado mucho tiempo sin estar a tu lado
      Bm        A           G       A
y no fue lo suficiente no logre olvidarte
 D                A           G              A
no ya no aguanto más voy a encontrarte para amarte
     D            A               G             A
porque estoy sin alma que al marcharte te lo llevastes
    Bm         A           G            A
y quisiera olvidarte y no puedo ya sacarte
  D         A          G             A     D
de mis recuerdos para asi vivir sin penas amor...

  D              A        G               D
Estoy deseando tenerte y estoy muriendo por verte
      D      A   G           D
por que sin tí nada tiene sentido
    D   A  G      D
regresa amor    regresaa...

cualquier sugerencia o comentario : el _traviesolove@
Suggest correction
Give kudos to tab author, rate the tab!
1 2 3 4 5
comments
print report bad tab
guest
You may want to rate the tab now too:
select rating
Wanna post a correction for this tab? Suggest correction