Oops, an error
Loading. Please wait.

Sandy Tab

version 2
version 2

Whole song

38 views 1 this week
no commentswrite comment
1 2 3 4 5
3 more votes to show rating
add to favorites
launch autoscroll
font size
0
reset
how to read this tab
guitar tuner
Autoscroll
slow
fast
+/-
esc
set tempo
stop
Help us to improve Ultimate-Guitar.com Take our survey!
×
SANDY(Mac Salvador)

 Intro
    D
E|--------0h1-------------------------------------------------------|
B|------3-----3-----------------------------------------------------|
G|----2---------2--0h2--2h0-----0h2---------------------------------|
D|--0------------------------3--------------------------------------|
A|------------------------------------------------------------------|
E|------------------------------------------------------------------|

E|--------0h1------3h5-5---1--3h5-----------------------------------|
B|------3-----3-----------------------------------------------------|
G|----2---------2---------------------------------------------------|
D|--0---------------------------------------------------------------|
A|------------------------------------------------------------------|
E|------------------------------------------------------------------|

E|------------------------------------------------------------------|
B|------------------------------------------------------------------|
G|------------------------------------------------------------------|
D|--------2-0h2-----0h2---------------------------------------------|
A|--0--3---------3--------------------------------------------------|
E|------------------------------------------------------------------|

    D                                         C
Después de tanto tiempo de andar buscando un amor
   D                                      C
de tanto amar en vano he vivido sin encontrar
                     A#                  F
la mujer que fuera ideal y me amara de verdad
                   C
decidido dije una ves
                      A#    A
que ya no volvería a amar jamás

-Un poco rápido
(*)darle efecto
E|------------------------------------------------------------------|
B|--11-10*-----10---10---10-8--6-7-6--------------------------------|
G|---------9-9----9----9--------------8-6-8-------------------------|
D|------------------------------------------------------------------|
A|------------------------------------------------------------------|
E|------------------------------------------------------------------|

E|--6-5----5--------------------------------------------------------|
B|-------8---8-6-8-6-5-6-5------------------------------------------|
G|-------------------------7-6-7*-----------------------------------|
D|------------------------------------------------------------------|
A|------------------------------------------------------------------|
E|------------------------------------------------------------------|

  D                           A#
Ahora te conozco y no se que hacer
                    F
ni contigo y ni sin ti
                     C
porque tu llegaste a mi
             A#
cuando mi corazón
           A        D
esta por morir de soledad


E|------1-3h5--5-5---5-3h1-1---3h5--5--3--1----------------------|
B|----3--------------------------------------3-------------------|
G|--2------------------------------------------------------------|
D|---------------------------------------------------------------|
A|---------------------------------------------------------------|
E|---------------------------------------------------------------|(x2)

E|--6--6--6-8h10--10-8--8--10-8-6h8-6---6h8----------------------|
B|--8-------------------10------------8--------------------------|
G|---------------------------------------------------------------|
D|---------------------------------------------------------------|
A|---------------------------------------------------------------|
E|---------------------------------------------------------------|

E|--6--6--6-8h10--10-8--8--10-8-6h8-8h6--6-----------------------|
B|--8-------------------10------------------9--------------------|
G|---------------------------------------------------------------|
D|---------------------------------------------------------------|
A|---------------------------------------------------------------|
E|---------------------------------------------------------------|

*Bastante rápido
E|---------------------------------------------------------------|
B|--------------------------------------0----0h2--3--------------|
G|-----------------------------2--0--2-----2---------------------|
D|--------0--3--0--3--5--3--5------------------------------------|
A|--0--3---------------------------------------------------------|
E|---------------------------------------------------------------|

  D                                           C
Después de tanto tiempo de andar buscando un amor
  D                                      C
de tanto amar en vano he vivido sin encontrar
                     A#                  F
la mujer que fuera ideal y me amara de verdad
                   C
decidido dije una vez
                      A#    A
que ya no volvería a amar jamás

E|------------------------------------------------------------------|
B|--11-10*-----10---10---10-8--6-7-6--------------------------------|
G|---------9-9----9----9--------------8-6-8-------------------------|
D|------------------------------------------------------------------|
A|------------------------------------------------------------------|
E|------------------------------------------------------------------|

E|--6-5----5--------------------------------------------------------|
B|-------8---8-6-8-6-5-6-5------------------------------------------|
G|-------------------------7-6-7*-----------------------------------|
D|------------------------------------------------------------------|
A|------------------------------------------------------------------|
E|------------------------------------------------------------------|

  D                           A#
Ahora te conozco y no se que hacer
                    F
ni contigo y ni sin ti
                     C
porque tu llegaste a mi
             A#
cuando mi corazón
           A        D
esta por morir de soledad

  D            F
quiero amarte a ti
            C
y que mi corazón
               A#
ame por ultima vez
            F
y muera por ti
                 F
no me importa si tu
                C
no me quieres a mi
 C                  A#
noooo pero quiero morir
   A         D
amándote...sandy

E|---------------------------------------------------------------|
B|---------------------------------------------------------------|
G|--5-7-8-----------7--------------------------------------------|
D|--------5h6-5h6-5----------------------------------------------|
A|---------------------------------------------------------------|
E|---------------------------------------------------------------|

E|------1-3h5--5-5---5-3h1-1---3h5--5--3--1----------------------|
B|----3--------------------------------------3-------------------|
G|--2------------------------------------------------------------|
D|---------------------------------------------------------------|
A|---------------------------------------------------------------|
E|---------------------------------------------------------------|(x2)

E|--6--6--6-8h10--10-8--8--10-8-6h8-6---6h8----------------------|
B|--8-------------------10------------8--------------------------|
G|---------------------------------------------------------------|
D|---------------------------------------------------------------|
A|---------------------------------------------------------------|
E|---------------------------------------------------------------|

E|--6--6--6-8h10--10-8--8--10-8-6h8-8h6--6-----------------------|
B|--8-------------------10------------------9--------------------|
G|---------------------------------------------------------------|
D|---------------------------------------------------------------|
A|---------------------------------------------------------------|
E|---------------------------------------------------------------|

 *Bastante rápido
E|---------------------------------------------------------------|
B|--------------------------------------0----0h2--3--------------|
G|-----------------------------2--0--2-----2---------------------|
D|--------0--3--0--3--5--3--5------------------------------------|
A|--0--3---------------------------------------------------------|
E|---------------------------------------------------------------|

Comentarios, dudas, correcciones a mi correo:
sorcery69@


Para ti Rocío...
por llegar a mi vida cuando mas lo necesitaba...
Suggest correction
Give kudos to tab author, rate the tab!
1 2 3 4 5
comments
print report bad tab
guest
You may want to rate the tab now too:
select rating
Wanna post a correction for this tab? Suggest correction