Oops, an error
Loading. Please wait.

Dance In Chicago Bass Tab

version 1
version 1

Whole song

Interactive

126 views 1 this week
no commentswrite comment
1 2 3 4 5
2 more votes to show rating
add to favorites
launch autoscroll
font size
0
reset
guitar tuner
Autoscroll
slow
fast
+/-
esc
set tempo
stop
Help us to improve Ultimate-Guitar.com Take our survey!
×
Author
----------------------------------------------------------------------------
			 DANCE IN CHICAGO - Mach Pelican
----------------------------------------------------------------------------

Tabbed By : Roper404
e-mail: 

Tuning: Standard


Intro
G|-------------------------------------------------------------------------|
D|-------------------------------------------------------------------------|
A|------------------7---7-7-7-7-7-7--5---5-5--7---7-7----------------------|
E|-5---5-5-5-5-5-5-------------------------------------5---5-5-5-5-5-5-----|


Verses
G|-------------------------------------------------------------------------|
D|-------------------------------------------------------------------------|
A|----------5---5-5--7---7-7-----------------------------------------------|
E|-5---5-5-------------------5---------------------------------------------|


Pre-chorus
G|-------------------------------------------------------------------------|
D|-------------------------------------------------------------------------|
A|-5---5-5-5-5-5-5-------------------5---5-5-5-5-5-5-----------------------|
E|------------------7---7-7-7-7-7-7-------------------7---7-7-7-7-7-7------|

G|-------------------------------------------------------------------------|
D|-------------------------------------------------------------------------|
A|-5---5-5-5-5-5-5-------------------5---5-5-5-5-5-5--7---7-7-7-7-7-7------|
E|------------------7---7-7-7-7-7-7----------------------------------------|


Out Chorus
G|-------------------------------------------------------------------------|
D|-------------------------------------------------------------------------|
A|------------------9---9-9-9-9-9-9--7---7-7--9---9-9----------------------|
E|-7---7-7-7-7-7-7-------------------------------------7---7-7-7-7-7-7-----|

Suggest correction
Give kudos to tab author, rate the tab!
1 2 3 4 5
comments
print report bad tab
guest
You may want to rate the tab now too:
select rating
Wanna post a correction for this tab? Suggest correction