Oops, an error
Loading. Please wait.

Bad Things Tab

version 1
version 1

Whole song

  • This is the first tab i've seen for Bad things fro... Show more
  • The tab can be played fingerstyle.
  • Based off NPT Music's version on piano (https://ww... Show more
7,021 views 189 this week
no commentswrite comment
1 2 3 4 5
x 4
add to favorites
launch autoscroll
font size
0
reset
how to read this tab
guitar tuner
Autoscroll
slow
fast
+/-
esc
set tempo
stop
Author
Difficulty
About this tab version
This is the first tab i've seen for Bad things from MGK and Camila Cabello, It seems right to me. The rap doesn't have a tab to play. Just play the chords. Was this info helpful? Yes No
[Intro]
e|-5-----2---|-------2---|-----2----|---------|--------|--------2-|----2--0----|
B|----3-----2|--3------0-|-3--------|-0--3----|-0--3---|--0--3----|-3----------|
G|-----------|-----------|--------2-|-------0-|-------2|----------|------------|
D|-----------|-----------|----------|---------|--------|----------|------------|
A|-----------|-----------|----------|---------|--------|----------|------------|
E|-----------|-----------|----------|---------|--------|----------|------------|

[Chorus]
e|-------------------|-----------------------|---------------------------------------|
B|-3--3--3--5--7--10-|-10--7--10--12--14--15-|-15--15--15--15--15--13--10--8--10--8--|
G|-------------------|-----------------------|---------------------------------------|
D|-------------------|-----------------------|---------------------------------------|
A|-------------------|-----------------------|---------------------------------------|
E|-------------------|-----------------------|---------------------------------------|

e|---------------------|------------------------------|----------------------|
B|8--3--8--10--8--7--3-|-3--3--3--0--3--5--5--7--3--5-|-3--3--3--3--5--7--10-|
G|---------------------|------------------------------|----------------------|
D|---------------------|------------------------------|----------------------|
A|---------------------|------------------------------|----------------------|
E|---------------------|------------------------------|----------------------|

e|---------------------------|----------------------------------------|
B|-10--10--7--10--12--14--15-|-3--15--15--15--15--15--13--10--8--10--8|
G|---------------------------|----------------------------------------|
D|---------------------------|----------------------------------------|
A|---------------------------|----------------------------------------|
E|---------------------------|----------------------------------------|

e|-------------------------|-------------------------------|
B|-8--8--3--8--10--8--7--3-|-3--3--3--0--3--5--5--7--3--5--|
G|-------------------------|-------------------------------|
D|-------------------------|-------------------------------|
A|-------------------------|-------------------------------|
E|------------------------|-------------------------------|

[Bridge]
e|-----------------|-------------------------|------------------------------------|
B|-----------------|-------------------------|------------------------------------|
G|----2--2----4----|-------------------------|------------------------------------|
D|-4-------4-----4-|-4--4--2--4--4--2--4--2--|2--2--0--4--0--0--0--0--0--0--0--0--|
A|-----------------|-------------------------|------------------------------------|
E|-----------------|-------------------------|------------------------------------|

e|-----------------|-------------------------|--------------|--------------------------------|
B|-----------------|-------------------------|--------------|--------------------------------|
G|-----------------|-------------------------|--------------|--------------------------------|
D|-0--0--0--0--0---|--0--0--0-----0--0--0--0-|-0--0--0--0---|--0--0-----2--2--2--0--4--0--2--|
A|----------------2|-----------2-------------|-------------2|--------2-----------------------|
E|-----------------|-------------------------|--------------|--------------------------------|
Suggest correction
comments
print report bad tab
guest
You may want to rate the tab now too:
select rating
Wanna post a correction for this tab? Suggest correction