Oops, an error
Loading. Please wait.

Bad Things tab

version 2
version 2

Whole song

  • This is the first tab i've seen for Bad things fro... Show more
  • The tab can be played fingerstyle.
  • Based off NPT Music's version on piano (https://ww... Show more
4,099 views 42 this week
no commentswrite comment
1 2 3 4 5
x 4
add to favorites
×
Save as Personal and add changes to this tab that will be seen only by you. Learn more ›
×
You can save this tab as Personal to edit and correct it or add notes. All changes will be seen only by you. Learn more »
launch autoscroll
font size
0
reset
how to read this tab
guitar tuner
edit
Autoscroll
slow
fast
+/-
esc
set tempo
stop
About this tab version
The tab can be played fingerstyle. Was this info helpful? Yes No
[Intro]

e|-3-----------------------------------0-------|
B|---1-3-0-1-3---1-3---1-3---1-3---1-3---1-3-3-|
G|-------------2-----0-----------0-------------|
D|-------------------------3-----------0-------|
A|-3-----------0-----3-----------3-------------|
E|-------3-----------------1-----------------3-|

[Chorus]
(Camila Cabello)

e|-3-----------3-3-3-3---7-8-8-8-8-8-8-7-5-3-1-3-1-1-1-1-1-3-1-0-------------------|
B|---1-1-1-3-5-5-------5-----------------------------------------1-1-1-1---3-3-5-3-|
G|-----------------------------------------------------------------------2---------|
D|-------------------------7---------------------------------------0---------------|
A|-3-------------------------------------------------------3-----------------------|
E|-------------3-----------5---------8-----------1-------------------------3-------|

e|-3-----------3-3-3-3---7-8-8-8-8-8-8-7-5-3-1-3-1-1-1-1-1-3-1-0-------------------|
B|---1-1-1-3-5-5-------5-----------------------------------------1-1-1-1---3-3-5-3-|
G|-----------------------------------------------------------------------2---------|
D|-------------------------7---------------------------------------0---------------|
A|-3-------------------------------------------------------3-----------------------|
E|-------------3-----------5---------8-----------1-------------------------3-------|

[Verse 1](MGK)

e|-3---0-------------------------|
B|-------------------------1---3-|
G|---------2---0---2---0---------|
D|-------------------------------|
A|-3-----------3-------3---0-----|
E|-----3---1-------1-----------3-|

e|-3---0-------------------------|
B|-------------------------1---3-|
G|---------2---0---2---0---------|
D|-------------------------------|
A|-3-----------3-------3---0-----|
E|-----3---1-------1-----------3-|

[Pre-Chorus]
(MGK I want you forever...)

e|-3---------------0---------------------------------------------------------------------|
B|---------------------------------------------------------------------------------------|
G|-0-0-0-0-2-0-----------------2---------------0-----------2-----------------0-----------|
D|-------------2-0-2-2-2-0-2-0-0-0---0-0-0---0---0---2-0-0---------------------------2-0-|
A|-3-------------------------------3-------3---3---3-------3-3-3-2-0-3-0-3-0-3-3-3-3-----|
E|-----------------3-----------1---------------------------1-----------------------------|

e|---------------------------|
B|-1---------------3---------|
G|---------------------------|
D|-----------------0-0-0-2-0-|
A|-3-3-3-3-0-3-0-3-----------|
E|-----------------3---------|

[Chorus]
(Camila Cabello)

e|-3-----------3-3-3-3---7-8-8-8-8-8-8-7-5-3-1-3-1-1-1-1-1-3-1-0-------------------|
B|---1-1-1-3-5-5-------5-----------------------------------------1-1-1-1---3-3-5-3-|
G|-----------------------------------------------------------------------2---------|
D|-------------------------7---------------------------------------0---------------|
A|-3-------------------------------------------------------3-----------------------|
E|-------------3-----------5---------8-----------1-------------------------3-------|

e|-3-----------3-3-3-3---7-8-8-8-8-8-8-7-5-3-1-3-1-1-1-1-1-3-1-0-------------------|
B|---1-1-1-3-5-5-------5-----------------------------------------1-1-1-1---3-3-5-3-|
G|-----------------------------------------------------------------------2---------|
D|-------------------------7---------------------------------------0---------------|
A|-3-------------------------------------------------------3-----------------------|
E|-------------3-----------5---------8-----------1-------------------------3-------|

[Verse 2]
(MGK)

e|-8---3---1---8---1---8---5---7-|
B|-------------------------------|
G|-------------------------------|
D|-------------------------------|
A|-------------------------0-----|
E|-8---3---1---8---1---8-------3-|

e|-(20)---7---5---0---5---12---8---10-|
B|------------------------------------|
G|------------------------------------|
D|---------------------------------5--|
A|-3--------------3------------0------|
E|--------3---1-------1---8-----------|
[Pre-Chorus]
(MGK)

e|-3---------------0---------------------------------------------------------------------|
B|---------------------------------------------------------------------------------------|
G|-0-0-0-0-2-0-----------------2---------------0-----------2-----------------0-----------|
D|-------------2-0-2-2-2-0-2-0-0-0---0-0-0---0---0---2-0-0---------------------------2-0-|
A|-3-------------------------------3-------3---3---3-------3-3-3-2-0-3-0-3-0-3-3-3-3-----|
E|-----------------3-----------1---------------------------1-----------------------------|

e|---------------------------|
B|-1---------------3---------|
G|---------------------------|
D|-----------------0-0-0-2-0-|
A|-3-3-3-3-0-3-0-3-----------|
E|-----------------3---------|

[Chorus]
(Camila Cabello)

e|-3-----------3-3-3-3---7-8-8-8-8-8-8-7-5-3-1-3-1-1-1-1-1-3-1-0-------------------|
B|---1-1-1-3-5-5-------5-----------------------------------------1-1-1-1---3-3-5-3-|
G|-----------------------------------------------------------------------2---------|
D|-------------------------7---------------------------------------0---------------|
A|-3-------------------------------------------------------3-----------------------|
E|-------------3-----------5---------8-----------1-------------------------3-------|

e|-3-----------3-3-3-3---7-8-8-8-8-8-8-7-5-3-1-3-1-1-1-1-1-3-1-0-------------------|
B|---1-1-1-3-5-5-------5-----------------------------------------1-1-1-1---3-3-5-3-|
G|-----------------------------------------------------------------------2---------|
D|-------------------------7---------------------------------------0---------------|
A|-3-------------------------------------------------------3-----------------------|
E|-------------3-----------5---------8-----------1-------------------------3-------|

[Bridge]
(Camila Cabello)

e|---------3-------------------3---------------------------------------------------|
B|-1-1-1/5---5-3-3-3-5-1-1-1/5---5-5-5-5---3-3-3-3-3-5-5---1-1---3-3-3-3-5---1-1---|
G|---------------------------------------2---------------2-----2-----------2-----2-|
D|---------------------------------------------------------------------------------|
A|---------------------------------------------------------------------------------|
E|---------------------------------------------------------------------------------|

[Pre-Chorus]
(MGK & Camila Cabello)

e|-3---------------0---------------------------------------------------------------------|
B|---------------------------------------------------------------------------------------|
G|-0-0-0-0-2-0-----------------2---------------0-----------2-----------------0-----------|
D|-------------2-0-2-2-2-0-2-0-0-0---0-0-0---0---0---2-0-0---------------------------2-0-|
A|-3-------------------------------3-------3---3---3-------3-3-3-2-0-3-0-3-0-3-3-3-3-----|
E|-----------------3-----------1---------------------------1-----------------------------|

e|---------------------------|
B|-1---------------3---------|
G|---------------------------|
D|-----------------0-0-0-2-0-|
A|-3-3-3-3-0-3-0-3-----------|
E|-----------------3---------|

[Chorus]
(Camila Cabello)

e|-3-----------3-3-3-3---7-8-8-8-8-8-8-7-5-3-1-3-1-1-1-1-1-3-1-0-------------------|
B|---1-1-1-3-5-5-------5-----------------------------------------1-1-1-1---3-3-5-3-|
G|-----------------------------------------------------------------------2---------|
D|-------------------------7---------------------------------------0---------------|
A|-3-------------------------------------------------------3-----------------------|
E|-------------3-----------5---------8-----------1-------------------------3-------|

e|-3-----------3-3-3-3---7-8-8-8-8-8-8-7-5-3-1-3-1-1-1-1-1-3-1-0-------------------|
B|---1-1-1-3-5-5-------5-----------------------------------------1-1-1-1---3-3-5-3-|
G|-----------------------------------------------------------------------2---------|
D|-------------------------7---------------------------------------0---------------|
A|-3-------------------------------------------------------3-----------------------|
E|-------------3-----------5---------8-----------1-------------------------3-------|

[Outro]

e|-0---0---0---0-------------------------------------------------------------------|
B|---1---1---1---1-3-1-3-1-3-1-3-1---1---1---1---1-3-1-3-1-3-1-3-1---1---1---1---1-|
G|---------------------------------2---2---2---2-------------------2---2---2---2---|
D|---------------------------------------------------------------------------------|
A|-3-------------------------------0--------------------------------0---------------|
E|-----------------3-------------------------------1-------------------------------|


e|-0---0---0---0---------------------------------|
B|---1---1---1---1---1---1---1---1-3-1-3-1-3-1-3-|
G|-----------------2---2---2---2-----------------|
D|-----------------------------------------------|
A|-3---------------3-----------0-----------------|
E|-----------------------------------------------|



************************************

| (n)  Ghost note
| /    Slide up

************************************
Suggest correction
Creating personal tab
Creating personal tab
You can edit any tab online and save it as your Personal.

You can edit, replace or remove any tab part or add personal notes – all changes will be seen only by you.

Personal tabs can be accessed anytime from any device, even offline.
Learn more »
comments
print report bad tab
guest
You may want to rate the tab now too:
select rating
Wanna post a correction for this tab? Suggest correction