Oops, an error
Loading. Please wait.

Bad Things tab

version 3
version 3

Whole song

  • The tab can be played fingerstyle.
  • Based off NPT Music's version on piano (https://ww... Show more
865 views 24 this week
no commentswrite comment
1 2 3 4 5
2 more votes to show rating
add to favorites
×
Save as Personal and add changes to this tab that will be seen only by you. Learn more ›
×
You can save this tab as Personal to edit and correct it or add notes. All changes will be seen only by you. Learn more »
launch autoscroll
font size
0
reset
how to read this tab
guitar tuner
edit
Autoscroll
slow
fast
+/-
esc
set tempo
stop
About this tab version
Based off NPT Music's version on piano (https://www.youtube.com/watch?v=VLdDp8m4nWk). Piano intro tabs, chords, vocal notes, and lyrics included. Can be played as instrumental/fingerstyle on either 1 or 2 guitars or accompaniment for singing ^.^. Was this info helpful? Yes No
[Intro]: Piano
    C            G            Am           C            F            C           D            G
e|->3-------0-|----------0-|----------0-|------------|--1---------|->0---------|->0-------0-|-----------|
B|--1----1----|->0----1----|--1----1----|--1-------1-|--1-------1-|--1-------1-|--3----1----|->3--------|
G|--0---------|--0---------|->2---------|->0----2----|--2----2----|--0----0----|--2---------|--0--------|
D|--2---------|--0---------|--2---------|--2---------|->3---------|--2---------|--0---------|--0--------|
A|--3---------|--2---------|------------|--3---------|--3---------|--3---------|------------|--2--------|
E|------------|--3---------|------------|------------|--1---------|------------|------------|--3--------|

[Chorus]: Camila
   C              G                Am                 C
e|-0----------0-|->3---3-0-3-5-7-|->8---8-8-8-8--8-|->6---3--1-3-|
B|-1--1-1-1-3---|--3-------------|--5--------------|--5----------|     Am I out of my head?
G|-0------------|--0-------------|--5--------------|--5----------|     Am I out of my mind?
D|-2------------|--0-------------|--7--------------|--5----------|     If you only knew the bad things I like
A|-3------------|--2-------------|--7--------------|--3----------|
E|--------------|--3-------------|--5--------------|-------------|

    F             C            D               G
e|->1---1-1----|->1--3-1-0---|--------------|--------0-----|
B|--1--------1-|--1--------1-|->1--1---1----|->3---3---1-3-|
G|--2----------|--0----------|--2----2----2-|--0-----------|           Don't think that I can explain it
D|--3----------|--2----------|--0-----------|--0-----------|           What can I say, it's complicated
A|--3----------|--3----------|--------------|--2-----------|
E|--1----------|-------------|--------------|--3-----------|
  
   C                  G                  Am              C
e|--------------0-3-|-3--3-3-0-3-5-7-8-|--5---8-8-8-8-|->8--6-3-1-3-|
B|-1--1-1-1-1-3-----|-3----------------|--5-----------|--6----------|  Don't matter what you say
G|-0----------------|-0----------------|->5-----------|--7----------|  Don't matter what you do
D|-2----------------|-0----------------|--7-----------|--8----------|  I only wanna do bad things to you
A|-3----------------|-2----------------|--7-----------|--8----------|
E|------------------|-3----------------|--5-----------|--6----------|

    F             C             D              G
e|->1---1-1----|->1--3-1-0---|--------------|--------0------|
B|--1--------1-|--1--------1-|->1--1---1----|->3---3----1-3-|
G|--2----------|--0----------|--2----2----2-|--0------------|          So good, that you can't explain it
D|--3----------|--2----------|--0-----------|--0------------|          What can I say, it's complicated
A|--3----------|--3----------|--------------|--2------------|
E|--1----------|-------------|--------------|--3------------|

[Pre-chorus]: MGK & Camila
    C                   Am
e|->0--3-3-0-5-0--0---|->0--0-0---0---|
B|--1---------------3-|--1------3---3-|
G|--0-----------------|--2------------|                                I want you forever
D|--2-----------------|--2------------|                                Even when we're not together
A|--3-----------------|--0------------|
E|--------------------|---------------|

    F                 C
e|---------0-------|---------------|
B|->3--3-1---1-1-1-|->1--1-1-1-1-1-|
G|--2--------------|--0------------|                                   Scars on my body
D|--3--------------|--2------------|                                   So I can take you wherever
A|--3--------------|--3------------|
E|--1--------------|---------------|

    F                      C
e|--1-------------------|-----------------|
B|->1---1-1-1---1-1-1---|->1--1-1-1-1-1-1-|
G|--2---------2-------2-|--0--------------|                           Like I want you forever
D|--3-------------------|--2--------------|                           Even when we're not together
A|--3-------------------|--3--------------|
E|--1-------------------|-----------------|

    Am                  G
e|-------------------|-----------0-----|
B|->1---1---1-1--1---|->3--3-3-1---1-3-|
G|--2-----2--------2-|--0--------------|                              Scars on my body
D|--2----------------|--0--------------|                              So I can take you wherever
A|--0----------------|--2--------------|
E|-------------------|--3--------------|

[Bridge]: Camila
    C               G          Am               C
e|->0--0-0-3-5-0-|--3------0-|->0--0-0-3-5-0-|-----------|
B|--1------------|->3--3-3---|--1------------|->3--3-1-1-|
G|--0------------|--0--------|--2------------|--0--------|            The way we love, is so unique
D|--2------------|--0--------|--2------------|--2--------|            And when we touch, I'm shivering
A|--3------------|--2--------|--0------------|--3--------|
E|---------------|--3--------|---------------|-----------|

    F                 C           D               G
e|---------------0-|-----------|-------------0-|-----------|
B|->3--3-3-3-3-3---|->1--1-1---|->3--3-3-3-3---|->1--1-1---|         And no one has to get it
G|--2--------------|--0------0-|--2------------|--0------0-|         Just you and me
D|--3--------------|--2--------|--0------------|--0--------|         Cause we're just living
A|--3--------------|--3--------|---------------|--2--------|         Between the sheets
E|--1--------------|-----------|---------------|--3--------|


************************************

| > Accented note

************************************

            
            
Suggest correction
Creating personal tab
Creating personal tab
You can edit any tab online and save it as your Personal.

You can edit, replace or remove any tab part or add personal notes – all changes will be seen only by you.

Personal tabs can be accessed anytime from any device, even offline.
Learn more »
Give kudos to tab author, rate the tab!
1 2 3 4 5
comments
print report bad tab
guest
You may want to rate the tab now too:
select rating
Wanna post a correction for this tab? Suggest correction